Godsmack - One Rainy Day Chords & Tabs

 

One Rainy Day Chords & Tabs

Godsmack Chords & Tabs

Version: 1 Type: Tab

One Rainy Day Tab

Artist:  Godsmack
Album:  IV
Song:  One Rainy Day
Track:  11
Time:  7:21

My second tab, thanks.

|-----------------------------------------|
|--5-3p0----------------------------------|
|-----------------------------------------|
|-----------------------------------------|
|-----------------------------------------|
|---------0-1-3h4p3-1-0--0----------------|

[ Tab from: http://www.guitartabs.cc/tabs/g/godsmack/one_rainy_day_tab.html ]
|-----------------------------------------|
|--5-3------------------------------------|
|-----------------------------------------|
|-----------------------------------------|
|-----------------------------------------|
|---------1-1-0-3-1-0-0-------------------|


|-----------------------------------------|
|--5-3p0----------------------------------|
|-----------------------------------------|
|-----------------------------------------|
|-----------------------------------------|
|---------0-1-3h4p3-1-0--0----------------|


|-----------------------------------------|
|--5-3------------------------------------|
|-----------------------------------------|
|-----------------------------------------|
|-----------------------------------------|
|---------1-1-0-3-1-0-0-------------------|

Repeats a shitload of times.

-Rob G.P.