Godsmack - Now Or Never Chords & Tabs

 

Now Or Never Chords & Tabs

Godsmack Chords & Tabs

Version: 1 Type: Tab 0 ratings
1 star 2 stars 3 stars 4 stars 5 stars
comments

Now Or Never Tab

   
Band- Godsmack
Song- Now Or Never
Album- Godsmack

 D5open                F5III                 G5                   G#5
      0 0 0 x x x          3 3 3 x x x          5 5 5 x x x          6 6 6 x x x

          A5                   C5                   D5                   F5
      7 7 7 x x x          x 3 5 5 x x          x 5 7 7 x x         x 8 10 10 x x

      G#5(type 2)              Bb5               D5/Aopen          D5open(type 2)
      x x 6 8 x x         x x 8 10 x x          x 0 0 x x x          0 0 0 2 3 x

         D5/A                   D                    E                    F
      x x x 2 3 x          x 5 x 7 x x          x 7 x 9 x x         x 8 x 10 x x

Gtr I (D A D G B E) - 'Tony Rombola'
Gtr II (D A D G B E) - 'Tony Rombola'
Gtr III (D A D G B E) - 'Tony Rombola Lead'

 Intro
  Q=110
 4/4
  Gtrs I, II
  Wx4          Q.    E  +H       Q.   E +Q.   +E
|------------|-----------------|--------------------|
|------------|-----------------|--------------------|
|------------|-----------------|--------------------|
|------------|------10-(10)----|------9-(9)---(9)\--|
|------------|-8---------------|-7------------------|
|------------|-----------------|--------------------|


  D5/AoD5/A
 4/4
                         ~~~~~~
  Q.   E +H       Q   E. S +Q.   +E
|---------------|-0-------------------|
|------3-(3)----|----[3]--------------|
|------2-(2)----|--------2-(2)---(2)/-|
|-0-------------|---------------------|
|-0-------------|---------------------|
|---------------|---------------------|


  Q.    E  +H        Q.    E  +Q.    +E
|-----------------|-----------------------|
|-----------------|-----------------------|
|-----------------|-----------------------|
|------10-(10)----|-------12-(12)---(12)\-|
|-8---------------|-10--------------------|
|-----------------|-----------------------|


                                                  Q=104
  D5/AoD5/A       D5open(type 2)                  D5openBb5  D5open    G#A5
 4/4
  Q.   E +H       S E S E S S S S S S S S S S     S E S  E S S +S  S E E E
|---------------|-----------------------------||---------------------------|
|------3-(3)----|-3-3-3-3-3-3-3-3-3-3-3-3-3-3-||o--------------------------|
|------2-(2)----|-2-2-2-2-2-2-2-2-2-2-2-2-2-2-||---------------------------|
|-0-------------|-0-0-0-0-0-0-0-0-0-0-0-0-0-0-||--0-0-0-10-0-0-(0)-0-0-6-7-|
|-0-------------|-----------------------------||o-0-0-0--8-0-0-(0)-0-0-6-7-|
|---------------|-----------------------------||--0-0-0----0-0-(0)-0-0-6-7-|


  D5openBb5  D5open    G#5(type D5openBb5  D5open    G#A5
 4/4
  S E S  E S S +S  S E E +E     S E S  E S S +S  S E E E
|-----------------------------|--------------------------|
|-----------------------------|--------------------------|
|-----------------------------|--------------------------|
|-0-0-0-10-0-0-(0)-0-0-8-(8)\-|-0-0-0-10-0-0-(0)-0-0-6-7-|
|-0-0-0--8-0-0-(0)-0-0-6-(6)\-|-0-0-0--8-0-0-(0)-0-0-6-7-|
|-0-0-0----0-0-(0)-0-0--------|-0-0-0----0-0-(0)-0-0-6-7-|


 1.
  D5openBb5  D5open
  S E S  E S S +S  S E  S   S   S   S
|---------------------------------------||
|--------------------------------------o||
|---------------------------------------||
|-0-0-0-10-0-0-(0)-0-0-<7>-<5>-<5>-<5>--||
|-0-0-0--8-0-0-(0)-0-0-----------------o||
|-0-0-0----0-0-(0)-0-0------------------||


  2.
  D5openBb5  D5open    G#5(type D5opeD5/A
 4/4
  S E S  E S S +S  S E E +E     E Q  E +H
|-----------------------------|---------------|
|-----------------------------|------3-(3)----|
|-----------------------------|------2-(2)----|
|-0-0-0-10-0-0-(0)-0-0-8-(8)\-|---0-----------|
|-0-0-0--8-0-0-(0)-0-0-6-(6)\-|-0-------------|
|-0-0-0----0-0-(0)-0-0--------|-0-------------|


  +W           +W           +W
|------------|------------|--------||
|-(3)--------|-(3)--------|-(3)----||
|-(2)--------|-(2)--------|-(2)----||
|------------|------------|--------||
|------------|------------|--------||
|------------|------------|--------||


   Verse
    Q=110
    $
                                                  G#5(type 2)
   4/4
    PM--|     PM------|       PM--|     PM------|
    E S S S E S +S  S E E E   E S S S E S +S  S E E +E
||--------------------------|----------------------------|
||o-------------------------|----------------------------|
||--------------------------|----------------------------|
||--------------------------|---------------------8-(8)\-|
||o-------7h8---------------|-------7h8-----------6-(6)\-|
||--0-0-0-----0-(0)-0-0-6-7-|-0-0-0-----0-(0)-0-0--------|


                                                G#5(type 2)
 4/4
  PM--|     PM------|       PM--|     PM------|
  E S S S E S +S  S E E E   E S S S E S +S  S E E +E
|-------------------------|----------------------------|
|-------------------------|----------------------------|
|-------------------------|----------------------------|
|-------------------------|---------------------8-(8)\-|
|-------7h8---------------|-------7h8-----------6-(6)\-|
|-0-0-0-----0-(0)-0-0-6-7-|-0-0-0-----0-(0)-0-0--------|


                                                G#5(type 2)
 4/4
  PM--|     PM------|       PM--|     PM------|
  E S S S E S +S  S E E E   E S S S E S +S  S E E +E
|-------------------------|----------------------------|
|-------------------------|----------------------------|
|-------------------------|----------------------------|
|-------------------------|---------------------8-(8)\-|
|-------7h8---------------|-------7h8-----------6-(6)\-|
|-0-0-0-----0-(0)-0-0-6-7-|-0-0-0-----0-(0)-0-0--------|


                                           To Coda
                                                G#5(type 2)
 4/4
  PM--|     PM------|       PM--|     PM------|
  E S S S E S +S  S E E E   E S S S E S +S  S E E +E
|-------------------------|----------------------------||
|-------------------------|----------------------------||
|-------------------------|----------------------------||
|-------------------------|---------------------8-(8)\-||
|-------7h8---------------|-------7h8-----------6-(6)\-||
|-0-0-0-----0-(0)-0-0-6-7-|-0-0-0-----0-(0)-0-0--------||


 Interlude
  1.104
  D5openBb5D5open      G#A5  D5openBb5D5open      G#5(type 2)
 4/4
  S E S  E S S +S  S E E E   S E S  E S S +S  S E E +E
|--------------------------|-----------------------------|
|--------------------------|-----------------------------|
|--------------------------|-----------------------------|
|-0-0-0-10-0-0-(0)-0-0-6-7-|-0-0-0-10-0-0-(0)-0-0-8-(8)\-|
|-0-0-0--8-0-0-(0)-0-0-6-7-|-0-0-0--8-0-0-(0)-0-0-6-(6)\-|
|-0-0-0----0-0-(0)-0-0-6-7-|-0-0-0----0-0-(0)-0-0--------|


  D5openBb5D5open      G#A5  D5openBb5D5open      G#5(type 2)
 4/4
  S E S  E S S +S  S E E E   S E S  E S S +S  S E E +E
|--------------------------|------------------------------||
|--------------------------|-----------------------------o||
|--------------------------|------------------------------||
|-0-0-0-10-0-0-(0)-0-0-6-7-|-0-0-0-10-0-0-(0)-0-0-8-(8)\--||
|-0-0-0--8-0-0-(0)-0-0-6-7-|-0-0-0--8-0-0-(0)-0-0-6-(6)\-o||
|-0-0-0----0-0-(0)-0-0-6-7-|-0-0-0----0-0-(0)-0-0---------||


 Pre Chorus
  2.104
  D5         C5                         D5    F5 C5       D5    G5A5
 4/4
  W          S S S S S S S S e E Q    S S S S  E  S S +S  S S S E E
|----------|------------------------|-------------------------------|
|----------|------------------------|-------------------------------|
|-7--------|-5-5-5-5-5-5-5-5-5------|-5-7-7-7-10-\5-5-(5)-7-7-7-----|
|-7--------|-5-5-5-5-5-5-5-5-5------|-5-7-7-7-10-\5-5-(5)-7-7-7-5-7-|
|-5--------|-3-3-3-3-3-3-3-3-3------|-3-5-5-5--8-\3-3-(3)-5-5-5-5-7-|
|----------|------------------------|---------------------------5-7-|


  C5D5    F5 C5       D5    G5A5  G5         F5III
 4/4
  S S S S  E  S S +S  S S S E E   W          H    E S S +S  S E
|-------------------------------|----------|---------------------|
|-------------------------------|----------|---------------------|
|-5-7-7-7-10-\5-5-(5)-7-7-7-----|----------|---------------------|
|-5-7-7-7-10-\5-5-(5)-7-7-7-5-7-|-5--------|-3----3---3-(3)---3--|
|-3-5-5-5--8-\3-3-(3)-5-5-5-5-7-|-5--------|-3----3---3-(3)---3--|
|---------------------------5-7-|-5--------|-3----3---3-(3)---3--|


  C5D5    F5 C5       D5    G5A5  C5D5    F5 C5       D5    G5A5
 4/4
  S S S S  E  S S +S  S S S E E   S S S S  E  S S +S  S S S E E
|-------------------------------|-------------------------------||
|-------------------------------|-------------------------------||
|-5-7-7-7-10-\5-5-(5)-7-7-7-----|-5-7-7-7-10-\5-5-(5)-7-7-7-----||
|-5-7-7-7-10-\5-5-(5)-7-7-7-5-7-|-5-7-7-7-10-\5-5-(5)-7-7-7-5-7-||
|-3-5-5-5--8-\3-3-(3)-5-5-5-5-7-|-3-5-5-5--8-\3-3-(3)-5-5-5-5-7-||
|---------------------------5-7-|---------------------------5-7-||


 Chorus
  Q=110
  D5open(tyD5A5G5               A5G5F5III
 4/4
                            PM----|
  H    +E  E E E   +Q   +E  S S S E S +Q
|----------------|-------------------------|
|-3----(3)-------|-------------------------|
|-2----(2)-------|-------------------------|
|-0----(0)---7-5-|-(5)--(5)---------3-(3)--|
|----------0-7-5-|-(5)--(5)-----7-5-3-(3)--|
|----------0-7-5-|-(5)--(5)-0-0-7-5-3-(3)--|


  D5open(typeA5G5               A5G5F5III
 4/4
                            PM----|
  H    +E  E E E   +Q   +E  S S S E S +Q
|----------------|-------------------------||
|-3----(3)-------|-------------------------||
|-2----(2)-------|-------------------------||
|-0----(0)---7-5-|-(5)--(5)---------3-(3)--||
|-0----(0)---7-5-|-(5)--(5)-----7-5-3-(3)--||
|-0----(0)-0-7-5-|-(5)--(5)-0-0-7-5-3-(3)--||


 Interlude
  Q=104
  D5openBb5D5open      G#A5  D5openBb5D5open      G#5(type 2)
 4/4
  S E S  E S S +S  S E E E   S E S  E S S +S  S E E +E
|--------------------------|-----------------------------|
|--------------------------|-----------------------------|
|--------------------------|-----------------------------|
|-0-0-0-10-0-0-(0)-0-0-6-7-|-0-0-0-10-0-0-(0)-0-0-8-(8)\-|
|-0-0-0--8-0-0-(0)-0-0-6-7-|-0-0-0--8-0-0-(0)-0-0-6-(6)\-|
|-0-0-0----0-0-(0)-0-0-6-7-|-0-0-0----0-0-(0)-0-0--------|


                                        D.S. al Coda
  D5openBb5D5open      G#A5  D5openBb5D5open      G#5(type 2)
 4/4
  S E S  E S S +S  S E E E   S E S  E S S +S  S E E +E
|--------------------------|-----------------------------||
|--------------------------|-----------------------------||
|--------------------------|-----------------------------||
|-0-0-0-10-0-0-(0)-0-0-6-7-|-0-0-0-10-0-0-(0)-0-0-8-(8)\-||
|-0-0-0--8-0-0-(0)-0-0-6-7-|-0-0-0--8-0-0-(0)-0-0-6-(6)\-||
|-0-0-0----0-0-(0)-0-0-6-7-|-0-0-0----0-0-(0)-0-0--------||


 Pre Chorus
  &
  D5         C5                         D5    F5 C5       D5    G5A5
 4/4
  W          S S S S S S S S e E Q    S S S S  E  S S +S  S S S E E
|----------|------------------------|-------------------------------|
|----------|------------------------|-------------------------------|
|-7--------|-5-5-5-5-5-5-5-5-5------|-5-7-7-7-10-\5-5-(5)-7-7-7-----|
|-7--------|-5-5-5-5-5-5-5-5-5------|-5-7-7-7-10-\5-5-(5)-7-7-7-5-7-|
|-5--------|-3-3-3-3-3-3-3-3-3------|-3-5-5-5--8-\3-3-(3)-5-5-5-5-7-|
|----------|------------------------|---------------------------5-7-|


  C5D5    F5 C5       D5    G5A5  G5         F5III
 4/4
  S S S S  E  S S +S  S S S E E   W          H    E S S +S  S E
|-------------------------------|----------|---------------------|
|-------------------------------|----------|---------------------|
|-5-7-7-7-10-\5-5-(5)-7-7-7-----|----------|---------------------|
|-5-7-7-7-10-\5-5-(5)-7-7-7-5-7-|-5--------|-3----3---3-(3)---3--|
|-3-5-5-5--8-\3-3-(3)-5-5-5-5-7-|-5--------|-3----3---3-(3)---3--|
|---------------------------5-7-|-5--------|-3----3---3-(3)---3--|


  C5D5    F5 C5       D5    G5A5  C5D5    F5 C5       D5    G5A5
 4/4
  S S S S  E  S S +S  S S S E E   S S S S  E  S S +S  S S S E E
|-------------------------------|-------------------------------|
|-------------------------------|-------------------------------|
|-5-7-7-7-10-\5-5-(5)-7-7-7-----|-5-7-7-7-10-\5-5-(5)-7-7-7-----|
|-5-7-7-7-10-\5-5-(5)-7-7-7-5-7-|-5-7-7-7-10-\5-5-(5)-7-7-7-5-7-|
|-3-5-5-5--8-\3-3-(3)-5-5-5-5-7-|-3-5-5-5--8-\3-3-(3)-5-5-5-5-7-|
|---------------------------5-7-|---------------------------5-7-|


  D5         C5                              D5    F5 C5       D5    G5A5
 4/4
  W          S S S S S S S S S S S S e E   S S S S  E  S S +S  S S S E E
|----------|-----------------------------|-------------------------------|
|----------|-----------------------------|-------------------------------|
|-7--------|-5-5-5-5-5-5-5-5-5-5-5-5-5---|-5-7-7-7-10-\5-5-(5)-7-7-7-----|
|-7--------|-5-5-5-5-5-5-5-5-5-5-5-5-5---|-5-7-7-7-10-\5-5-(5)-7-7-7-5-7-|
|-5--------|-3-3-3-3-3-3-3-3-3-3-3-3-3---|-3-5-5-5--8-\3-3-(3)-5-5-5-5-7-|
|----------|-----------------------------|---------------------------5-7-|


  C5D5    F5 C5       D5    G5A5  G5         F5III
 4/4
  S S S S  E  S S +S  S S S E E   W          H    E S S +S  S E
|-------------------------------|----------|---------------------|
|-------------------------------|----------|---------------------|
|-5-7-7-7-10-\5-5-(5)-7-7-7-----|----------|---------------------|
|-5-7-7-7-10-\5-5-(5)-7-7-7-5-7-|-5--------|-3----3---3-(3)---3--|
|-3-5-5-5--8-\3-3-(3)-5-5-5-5-7-|-5--------|-3----3---3-(3)---3--|
|---------------------------5-7-|-5--------|-3----3---3-(3)---3--|


  C5D5    F5 C5       D5    G5A5  C5D5    F5 C5       D5    G5A5
 4/4
  S S S S  E  S S +S  S S S E E   S S S S  E  S S +S  S S S E E
|-------------------------------|-------------------------------||
|-------------------------------|-------------------------------||
|-5-7-7-7-10-\5-5-(5)-7-7-7-----|-5-7-7-7-10-\5-5-(5)-7-7-7-----||
|-5-7-7-7-10-\5-5-(5)-7-7-7-5-7-|-5-7-7-7-10-\5-5-(5)-7-7-7-5-7-||
|-3-5-5-5--8-\3-3-(3)-5-5-5-5-7-|-3-5-5-5--8-\3-3-(3)-5-5-5-5-7-||
|---------------------------5-7-|---------------------------5-7-||

[ Tab from: http://www.guitartabs.cc/tabs/g/godsmack/now_or_never_tab.html ]
 Chorus
  Q=110
  D5open(typeA5G5               A5G5F5III    D5open(typeA5G5
 4/4
                            PM----|
  H    +E  E E E   +Q   +E  S S S E S +Q     H    +E  E E E
|----------------|-------------------------|----------------|
|-3----(3)-------|-------------------------|-3----(3)-------|
|-2----(2)-------|-------------------------|-2----(2)-------|
|-0----(0)---7-5-|-(5)--(5)---------3-(3)--|-0----(0)---7-5-|
|-0----(0)---7-5-|-(5)--(5)-----7-5-3-(3)--|-0----(0)---7-5-|
|-0----(0)-0-7-5-|-(5)--(5)-0-0-7-5-3-(3)--|-0----(0)-0-7-5-|


               A5G5F5III    D5open(typeA5G5               A5G5F5III
 4/4
           PM----|                                    PM----|
  +Q   +E  S S S E S +Q     H    +E  E E E   +Q   +E  S S S E S +Q
|-------------------------|----------------|-------------------------|
|-------------------------|-3----(3)-------|-------------------------|
|-------------------------|-2----(2)-------|-------------------------|
|-(5)--(5)---------3-(3)--|-0----(0)---7-5-|-(5)--(5)---------3-(3)--|
|-(5)--(5)-----7-5-3-(3)--|-0----(0)---7-5-|-(5)--(5)-----7-5-3-(3)--|
|-(5)--(5)-0-0-7-5-3-(3)--|-0----(0)-0-7-5-|-(5)--(5)-0-0-7-5-3-(3)--|


  D5open(typeA5G5               A5G5F5III
 4/4
                            PM----|
  H    +E  E E E   +Q   +E  S S S E S +Q
|----------------|-------------------------||
|-3----(3)-------|-------------------------||
|-2----(2)-------|-------------------------||
|-0----(0)---7-5-|-(5)--(5)---------3-(3)--||
|-0----(0)---7-5-|-(5)--(5)-----7-5-3-(3)--||
|-0----(0)-0-7-5-|-(5)--(5)-0-0-7-5-3-(3)--||


 Bridge
  D5opeD5/A
 4/4
  E Q  E +H       +W           +W           +W
|---------------|------------|------------|--------|
|------3-(3)----|-(3)--------|-(3)--------|-(3)----|
|------2-(2)----|-(2)--------|-(2)--------|-(2)----|
|---0-----------|------------|------------|--------|
|-0-------------|------------|------------|--------|
|-0-------------|------------|------------|--------|


 4/4
  +H.      +E  E   Q.   E +H       +W           +W
|----------------|---------------|------------|--------||
|-(3)------(3)---|-3-------------|------------|--------||
|-(2)------(2)-2-|------2-(2)----|-(2)--------|-(2)----||
|----------------|---------------|------------|--------||
|----------------|---------------|------------|--------||
|----------------|---------------|------------|--------||


 Guitar Solo
  Q=104
  D5open Bb5     D5open              G#5   A5       D5open    Bb5   D5open                     G#5(type 2)
 4/4
  Gtrs I, II
  S E  S  E    S   S  +S    S E       E    E          S   E S  E    S          S  +S  S E        E     +E
|-------------------------------------------------|------------------------------------------------------------|
|-------------------------------------------------|------------------------------------------------------------|
|-------------------------------------------------|------------------------------------------------------------|
|-0-0--0-10----0---0--(0)---0-0-------6----7------|---0---0-0-10----0----------0--(0)-0-0--------8-----(8)\----|
|-0-0--0--8----0---0--(0)---0-0-------6----7------|---0---0-0--8----0----------0--(0)-0-0--------6-----(6)\----|
|-0-0--0-------0---0--(0)---0-0-------6----7------|---0---0-0-------0----------0--(0)-0-0----------------------|
|
| Gtr III
| S E.    E.      +S   E.        +S   E.      +S     +E.    S  S  E    a      +Q           +S   +S   E       S
|-------------------------------------------------|------------------------------------------------------------|
|-x-0---------------------------------------------|------------x-12---12b13==(12)---------(12)r(12)p10------12-|
|-x-0----12b14---(12)-12b14-----(12)-12b14---(12)-|-(12)\---x--------------------------------------------------|
|-x-0---------------------------------------------|---------x--------------------------------------------------|
|-------------------------------------------------|---------x--------------------------------------------------|
|-------------------------------------------------|------------------------------------------------------------|


  D5open                Bb5       D5open        G#5A5
    S   E            S    E        S S +S  S  E  E E
|-----------------------------------------------------|
|-----------------------------------------------------|
|-----------------------------------------------------|
|---0---0------------0---10--------0-0-(0)-0--0--6-7--|
|---0---0------------0----8--------0-0-(0)-0--0--6-7--|
|---0---0------------0-------------0-0-(0)-0--0--6-7--|
|
|                                                ~~
|  +S   S  +S       +S   +S   +S   E    E     E  Q
|-----------------------------------------------------|
|-(12)-12-(12)b13==(12)-(12)r(12)p10---12-------------|
|--------------------------------------------10-10----|
|-----------------------------------------------------|
|-----------------------------------------------------|
|-----------------------------------------------------|


  D5open        Bb5   D5open               G#5(type 2)
 4/4
    S   E     S  E    S    S +S  S    E     E    +E
|--------------------------------------------------------|
|--------------------------------------------------------|
|--------------------------------------------------------|
|---0---0-----0-10----0----0-(0)-0----0-----8----(8)\----|
|---0---0-----0--8----0----0-(0)-0----0-----6----(6)\----|
|---0---0-----0-------0----0-(0)-0----0------------------|
|
|                |---3---|    |----3-----|
|  +S   S  S  S  E  E    E    E     E    E  S  S  S    S
|--------------------------------------------------------|
|---------12----13------12---------13------12------------|
|-(10)-10----10----10--------10---------10----10-10---10-|
|--------------------------------------------------------|
|--------------------------------------------------------|
|--------------------------------------------------------|


  D5open   Bb5     D5open      G#5   A5  D5open    Bb5             D5open         G#5(type 2)
   S E   S  E    S S +S    S E  E    E     S   E S  E       S      S  +S   S E    E +E
|--------------------------------------|---------------------------------------------------|
|--------------------------------------|---------------------------------------------------|
|--------------------------------------|---------------------------------------------------|
|--0-0---0-10----0-0-(0)---0-0--6----7-|---0---0-0-10-------0------0--(0)--0-0----8-(8)\---|
|--0-0---0--8----0-0-(0)---0-0--6----7-|---0---0-0--8-------0------0--(0)--0-0----6-(6)\---|
|--0-0---0-------0-0-(0)---0-0--6----7-|---0---0-0----------0------0--(0)--0-0-------------|
|
|  E   S S  Q         Q         Q         +Q        E      +E         +E     E    E  E
|--------------------------------------|---------------------------------------------------|
|------0-0---------------------10------|-(10)\-------------------------------6-------------|
|-10---0-0-12b14-----12b14-----12b14---|-(12)\-----10b12==(10)b13====(10)r---8b10-8p=5-----|
|------0-0-----------------------------|---------------------------------------------------|
|--------------------------------------|---------------------------------------------------|
|--------------------------------------|---------------------------------------------------|


  D5open       Bb5   D5open            G#5 A5
 4/4
  S   E   S     E    S   S +S  S   E   E   E
|-----------------------------------------------|
|-----------------------------------------------|
|-----------------------------------------------|
|-0---0---0----10----0---0-(0)-0---0---6---7----|
|-0---0---0-----8----0---0-(0)-0---0---6---7----|
|-0---0---0----------0---0-(0)-0---0---6---7----|
|
|                                          ~~~~~~
| E     S S    +S  S E      S  E     S E   E
|-----------------------------------------------|
|-------3----------3--------3--------3----------|
|-5b7-----5b7==(5)---5b7-------5b7-----5b7-5b7==|
|-----------------------------------------------|
|-----------------------------------------------|
|-----------------------------------------------|


  D5open     Bb5D5open        G#5(type 2)
   S   E   S  E S S +S  S E   E   +E
|----------------------------------------||
|----------------------------------------||
|----------------------------------------||
|--0---0---0-10-0-0-(0)-0-0---8---(8)\---||
|--0---0---0--8-0-0-(0)-0-0---6---(6)\---||
|--0---0---0----0-0-(0)-0-0--------------||
|
|~~~~~
| +S  +E.     E E   +S  S S S S S  S   S
|----------------------------------------||
|----------------------------------------||
|-(5)-(5)\---/7-7---(7)-7-7-7-7-7--7---7-||
|----------------------------------------||
|----------------------------------------||
|----------------------------------------||


 Pre Chorus
  Q=110
  D5              C5                         D5    F5 C5       D5    G5A5
 4/4
   W               Q  Q  Q       Q         S S S S  E  S S +S  S S S E E
|---------------|------------------------|-------------------------------|
|---------------|------------------------|-------------------------------|
|--7------------|--5--5--5-------5-------|-5-7-7-7-10-\5-5-(5)-7-7-7-----|
|--7------------|--5--5--5-------5-------|-5-7-7-7-10-\5-5-(5)-7-7-7-5-7-|
|--5------------|--3--3--3-------3-------|-3-5-5-5--8-\3-3-(3)-5-5-5-5-7-|
|---------------|------------------------|---------------------------5-7-|
|
| +Q    Q  H       Q  Q  S S S S S S S S   W
|---------------|------------------------|-------------------------------|
|---------------|------------------------|-------------------------------|
|-(7)\----------|-/7--7--7-7-7-7-7-7-7-7-|-------------------------------|
|---------------|--x--x--x-x-x-x-x-x-x-x-|-------------------------------|
|---------------|-/5--5--5-5-5-5-5-5-5-5-|-------------------------------|
|---------------|------------------------|-------------------------------|


  C5D5    F5 C5       D5    G5A5  G5         F5III
 4/4
  Gtrs I, II
  S S S S  E  S S +S  S S S E E   W          Q.   E +Q   Q
|-------------------------------|----------|-----------------|
|-------------------------------|----------|-----------------|
|-5-7-7-7-10-\5-5-(5)-7-7-7-----|----------|-----------------|
|-5-7-7-7-10-\5-5-(5)-7-7-7-5-7-|-5--------|-3----3-(3)--3---|
|-3-5-5-5--8-\3-3-(3)-5-5-5-5-7-|-5--------|-3----3-(3)--3---|
|---------------------------5-7-|-5--------|-3----3-(3)--3---|


    C5D5    F5 C5       D5    G5A5  C5D5    F5 C5       D5    G5A5
   4/4
    S S S S  E  S S +S  S S S E E   S S S S  E  S S +S  S S S E E
||--------------------------------|--------------------------------||
||o-------------------------------|-------------------------------o||
||--5-7-7-7-10-\5-5-(5)-7-7-7-----|-5-7-7-7-10-\5-5-(5)-7-7-7------||
||--5-7-7-7-10-\5-5-(5)-7-7-7-5-7-|-5-7-7-7-10-\5-5-(5)-7-7-7-5-7--||
||o-3-5-5-5--8-\3-3-(3)-5-5-5-5-7-|-3-5-5-5--8-\3-3-(3)-5-5-5-5-7-o||
||----------------------------5-7-|---------------------------5-7--||


 Outro
  F                                E
 4/4
    Q.    E  +S   E.  S  S  S  S   S S S S S S S S S S S S S S S S
|--------------------------------|---------------------------------|
|--------------------------------|---------------------------------|
|-/10----10-(10)-10--10-10-10-10-|-9-9-9-9-9-9-9-9-9-9-9-9-9-9-9-9-|
|---x-----x-------x---x--x--x--x-|-x-x-x-x-x-x-x-x-x-x-x-x-x-x-x-x-|
|--/8-----8--(8)--8---8--8--8--8-|-7-7-7-7-7-7-7-7-7-7-7-7-7-7-7-7-|
|--------------------------------|---------------------------------|


  D
 4/4
  S S S S S S S S S S S S S S S S   S S S S S S S S S S S S S S S S
|---------------------------------|----------------------------------|
|---------------------------------|----------------------------------|
|-7-7-7-7-7-7-7-7-7-7-7-7-7-7-7-7-|-7-7-7-7-7-7-7-7-7-7-7-7-7-7-7-7--|
|-x-x-x-x-x-x-x-x-x-x-x-x-x-x-x-x-|-x-x-x-x-x-x-x-x-x-x-x-x-x-x-x-x--|
|-5-5-5-5-5-5-5-5-5-5-5-5-5-5-5-5-|-5-5-5-5-5-5-5-5-5-5-5-5-5-5-5-5--|
|---------------------------------|----------------------------------|


  F

 4/4
   S  S  S  S  S  S  S  S  S  S  S  S  S  S  S  S
|-------------------------------------------------|
|-------------------------------------------------|
|-10-10-10-10-10-10-10-10-10-10-10-10-10-10-10-10-|
|--x--x--x--x--x--x--x--x--x--x--x--x--x--x--x--x-|
|--8--8--8--8--8--8--8--8--8--8--8--8--8--8--8--8-|
|-------------------------------------------------|


  E
  S S S S S S S S S S S S S S S S
|----------------------------------|
|----------------------------------|
|-9-9-9-9-9-9-9-9-9-9-9-9-9-9-9-9--|
|-x-x-x-x-x-x-x-x-x-x-x-x-x-x-x-x--|
|-7-7-7-7-7-7-7-7-7-7-7-7-7-7-7-7--|
|----------------------------------|


  D                                 D5
 4/4
  S S S S S S S S S S S S S S S S   S S S S E S S S S E S S S S
|---------------------------------|------------------------------|
|---------------------------------|------------------------------|
|-7-7-7-7-7-7-7-7-7-7-7-7-7-7-7-7-|-7-7-7-7---7-7-7-7---7-7-7-7--|
|-x-x-x-x-x-x-x-x-x-x-x-x-x-x-x-x-|-7-7-7-7---7-7-7-7---7-7-7-7--|
|-5-5-5-5-5-5-5-5-5-5-5-5-5-5-5-5-|-5-5-5-5---5-5-5-5---5-5-5-5--|
|---------------------------------|------------------------------|


  C5D5    F5 C5       D5    G5A5
 4/4
  S S S S  E  S S +S  S S S E E
|-------------------------------|
|-------------------------------|
|-5-7-7-7-10-\5-5-(5)-7-7-7-----|
|-5-7-7-7-10-\5-5-(5)-7-7-7-5-7-|
|-3-5-5-5--8-\3-3-(3)-5-5-5-5-7-|
|---------------------------5-7-|


  C5D5    F5  C5     D5
  S S S S  E.  S +S  S E +Q     +H     +H
|-----------------------------|----------------*|
|-----------------------------|----------------*|
|-5-7-7-7-10--\5-(5)-7-7-(7)--|-(7)----(7)\----*|
|-5-7-7-7-10--\5-(5)-7-7-(7)--|-(7)----(7)\----*|
|-3-5-5-5--8--\3-(3)-5-5-(5)--|-(5)----(5)\----*|
|-----------------------------|----------------*|


Duration Legend
---------------
W - whole; H - half; Q - quarter; E - 8th; S - 16th; T - 32nd; X - 64th; a - acciaccatura
+ - note tied to previous; . - note dotted; .. - note double dotted
Uncapitalized letters represent notes that are staccato (1/2 duration)
Irregular groupings are notated above the duration line
Duration letters will always appear directly above the note/fret number it represents the
duration for.  Duration letters with no fret number below them represent rests.  Multi-
bar rests are notated in the form Wxn, where n is the number of bars to rest for.  Low
melody durations appear below the staff

Tablature Legend
----------------
 h   - hammer-on
 p   - pull-off
 b   - bend
 pb  - pre-bend
 r   - bend release (if no number after the r, then release immediately)
 /\  - slide into or out of (from/to "nowhere")
 s   - legato slide
 S   - shift slide
  - natural harmonic
[n]  - artificial harmonic
n(n) - tapped harmonic
 ~   - vibrato
 tr  - trill
 T   - tap
 TP  - trem. picking
 PM  - palm muting
\n/  - tremolo bar dip; n = amount to dip
 \n  - tremolo bar down
 n/  - tremolo bar up
/n\  - tremolo bar inverted dip
 =   - hold bend; also acts as connecting device for hammers/pulls
 <>  - volume swell (louder/softer)
 x   - on rhythm slash represents muted slash
 o   - on rhythm slash represents single note slash

Misc Legend
-----------
 |  - bar
||  - double bar
||o - repeat start
o|| - repeat end
*|  - double bar (ending)
 :  - bar (freetime)
 $  - Segno
 &  - Coda
Tempo markers -  = BPM(8/16=s8/s16), where s8 = swing 8ths, s16 = swing 16ths
Comments