Godsmack - No Rest For The Wicked Chords & Tabs

 

No Rest For The Wicked Chords & Tabs

Godsmack Chords & Tabs

Version: 1 Type: Tab

No Rest For The Wicked Tab

Band- Godsmack
Song- No Rest For The Wicked
Album- IV (2006)
Tuning- CGCFAD(I think it's the only song album tuned to this tuning, the rest is all 
regular drop D.)

Intro
|------------------------------------------------------------------------|
|------------------------------------------------------------------------|
|------------------------------------------------------------------------|
|------------------------------------------------------------0-0-3-0-0-5-|
|---5-5---------6-5---5-5-5-5-3--------5-5---------6-5---5-5-0-0-3-0-0-5-|
|-0-----0-0-0-0-----0-----------6-5--0-----0-0-0-0-----0-----0-0-3-0-0-5-|
P.M.                                                         ...   ...

Heavy Intro
|------------------------------------------------------------------------|
|------------------------------------------------------------------------|
|------------------------------------------------------------------------|
|------------------------------------------------------------0-0-3-0-0-5-|
|-0-5-5-0-0-0-0-6-5-0-5-5-5-5-3------0-5-5-0-0-0-0-6-5-0-5-5-0-0-3-0-0-5-|
|-0-----0-0-0-0-----0-----------6-5--0-----0-0-0-0-----0-----0-0-3-0-0-5-|
P.M.                                                         ...   ...

Verse
|---------------------------------------------|
|---------------------------------------------|
|---------------------------------------------|
|-0~---------------------------------------0~-|
|-0~----0-5-5-0-0-0-0-6-5-0-5-5-5-5-3------0~-|
|-0~----0-----0-0-0-0-----0-----------6-5--0~-|

|---------------------------------------------------------|
|---------------------------------------------------------|
|---------------------------------------------------------|
|-------------------------0-0-3-0-0-5-5-5-5-5-3-3-3-3-3-3-|
|-0-5-5-0-0-0-0-6-5-0-5-5-0-0-3-0-0-5-5-5-5-5-3-3-3-3-3-3-|
|-0-----0-0-0-0-----0-----0-0-3-0-0-5-5-5-5-5-3-3-3-3-3-3-|
P.M.                      ...   ...

|---------------------------------------------------------|
|---------------------------------------------------------|
|---------------------------------------------------------|
|-------------------------0-0-3-0-0-5-5-5-5-5-3-3-3-3-3-3-|
|-0-5-5-0-0-0-0-6-5-0-5-5-0-0-3-0-0-5-5-5-5-5-3-3-3-3-3-3-|
|-0-----0-0-0-0-----0-----0-0-3-0-0-5-5-5-5-5-3-3-3-3-3-3-|
P.M.                      ...   ...
[ Tab from: http://www.guitartabs.cc/tabs/g/godsmack/no_rest_for_the_wicked_tab.html ]
Chorus
|---------------------------------------------------|
|---------------------------------------------------|
|---------------------------------------------------|
|-0-0-0-0-0-10-10-10-10-10-8-8-8-8-8-10-10-10-10-10-|
|-0-0-0-0-0-10-10-10-10-10-8-8-8-8-8-10-10-10-10-10-|
|-0-0-0-0-0-10-10-10-10-10-8-8-8-8-8-10-10-10-10-10-|

First Chorus Ending
|-----|
|-----|
|-----|
|-10~-|
|-10~-|
|-10~-|

Play Intro

Play Verse

Play Chorus

Second Chorus Ending
|-------------------|
|-------------------|
|-------------------|
|-10-10-10-10-10-10-|
|-10-10-10-10-10-10-|
|-10-10-10-10-10-10-|
P.M.............

Bridge w/wah & delay
|--------------------------------------------------------------------|
|--------------------------------------------------------------------|
|--------------------------------------------------------------------|
|-0--0--0--0--0-3--0--0--0--0--0-3--0--0--0--0--0-3--6--5--3-6--5--3-|
|-0--0--0--0--0-3--0--0--0--0--0-3--0--0--0--0--0-3--6--5--3-6--5--3-|
|-0--0--0--0--0-3--0--0--0--0--0-3--0--0--0--0--0-3--6--5--3-6--5--3-|

|------------------------------------------------------|
|------------------------------------------------------|
|------------------------------------------------------|
|-0--0--0--0--0-3--0--0--0--0--0-3--0--0--0--0--0-3-6~-|
|-0--0--0--0--0-3--0--0--0--0--0-3--0--0--0--0--0-3-6~-|
|-0--0--0--0--0-3--0--0--0--0--0-3--0--0--0--0--0-3-6~-|

Bridge Ending
|------------------------------------------------------|
|------------------------------------------------------|
|------------------------------------------------------|
|-0--0--0--0--0-3--0--0--0--0--0-3--0--0--0--0--0-3-6~-|
|-0--0--0--0--0-3--0--0--0--0--0-3--0--0--0--0--0-3-6~-|
|-0--0--0--0--0-3--0--0--0--0--0-3--0--0--0--0--0-3-6~-|

Play Intro

Solo w/wah(Note:This isn't perfect so just mess around with this with tremolo picking 
it should sound close.)
|--------------------------------------------------------------|
|-13-13-13-13-13-13-13-13-15-15-15-15-15-13-13-13-13-13-13-13--|
|-12^12^12^12^12^12^12^12^14^14^14^14^14^12^12^12^12^12^12^12^-|
|--------------------------------------------------------------|
|--------------------------------------------------------------|
|--------------------------------------------------------------|

Solo Backing: Play Heavy Intro

Play Chorus w/ Second Chorus Ending

Play Heavy Intro to End

Ending
|-------------|
|-------------|
|-------------|
|-0-0-3-0-0-5-|
|-0-0-3-0-0-5-|
|-0-0-3-0-0-5-|
P.M..   ...

The Enemy and Mama are coming soon, but for now, enjoy!