Godsmack - Moon Baby Chords & Tabs

 

Moon Baby Chords & Tabs

Godsmack Chords & Tabs

Version: 7 Type: Tab 0 ratings
1 star 2 stars 3 stars 4 stars 5 stars
comments

Moon Baby Tab

   
Band- Godsmack
Song- Moon Baby
Album- Godsmack


          D5                   E5                   F#5                  G5
      0 0 x x x x          2 2 2 x x x          4 4 x x x x          5 5 x x x x

          A5                 C#sus4                G5/D                   D
      7 7 x x x x          x 4 4 6 x x          x 5 5 7 x x          x 5 x 7 x x

          Eb                    E                   F#               E5(type 2)
      x 6 x 8 x x          x 7 x 9 x x         x 9 x 11 x x          2 2 2 4 5 x

Gtr I (D A D G B E) - 'Tony Rombola'
Gtr II (D A D G B E) - 'Tony Rombola'

 Intro
 4/4
  Gtr I
  Wx2
|--------|
|--------|
|--------|
|--------|
|--------|
|--------|


    Q=82
    F#5               D5E5    F#5             G5   A5   G5   F#5
    Gtr I
    S S S S E S S E E S S E   S S S S E S S S  S S  S S  S S  S
||--------------------------|------------------------------------||
||o-------------------------|-----------------------------------o||
||--------------------------|------------------------------------||
||--------------------------|------------------------------------||
||o-4-4-4-4---4-4-4---0-2-2-|-4-4-4-4---4-4-4-/5-5-/7-7-\5-5-\4-o||
||--4-4-4-4---4-4-4---0-2-2-|-4-4-4-4---4-4-4-/5-5-/7-7-\5-5-\4--||


   Verse
    $
    F#5               D5E5    F#5             G5   A5   G5   F#5
    S S S S E S S E E S S E   S S S S E S S S  S S  S S  S S  S
||--------------------------|-----------------------------------|
||o-------------------------|-----------------------------------|
||--------------------------|-----------------------------------|
||--------------------------|-----------------------------------|
||o-4-4-4-4---4-4-4---0-2-2-|-4-4-4-4---4-4-4-/5-5-/7-7-\5-5-\4-|
||--4-4-4-4---4-4-4---0-2-2-|-4-4-4-4---4-4-4-/5-5-/7-7-\5-5-\4-|


  F#5               D5E5    F#5             G5   A5   G5   F#5
  S S S S E S S E E S S E   S S S S E S S S  S S  S S  S S  S
|-------------------------|------------------------------------||
|-------------------------|-----------------------------------o||
|-------------------------|------------------------------------||
|-------------------------|------------------------------------||
|-4-4-4-4---4-4-4---0-2-2-|-4-4-4-4---4-4-4-/5-5-/7-7-\5-5-\4-o||
|-4-4-4-4---4-4-4---0-2-2-|-4-4-4-4---4-4-4-/5-5-/7-7-\5-5-\4--||


 Pre Chorus
  D5    D Eb D5        D Eb D      F#5   C#G5/F#5         E5
  E S S S  S S E S S S S  S  S S   E S S S  S S E S S S E E
|--------------------------------|--------------------------|
|--------------------------------|--------------------------|
|-------7-/8-----------7-/8-\7---|-------6-/7---------------|
|-------x--x-----------x--x--x---|-------4-/5---------------|
|-0-0-0-5-/6-0-0-0-0-0-5-/6-\5p0-|-4-4-4-4-/5-4-4-4-4-4-4-2-|
|-0-0-0------0-0-0-0-0-----------|-4-4-4------4-4-4-4-4-4-2-|


                                                   To Coda
  D5    D Eb D5        D Eb D      F#5   C#G5/F#5         E5
  E S S S  S S E S S S S  S  S S   E S S S  S S E S S S E E
|--------------------------------|--------------------------||
|--------------------------------|--------------------------||
|-------7-/8-----------7-/8-\7---|-------6-/7---------------||
|-------x--x-----------x--x--x---|-------4-/5---------------||
|-0-0-0-5-/6-0-0-0-0-0-5-/6-\5p0-|-4-4-4-4-/5-4-4-4-4-4-4-2-||
|-0-0-0------0-0-0-0-0-----------|-4-4-4------4-4-4-4-4-4-2-||


 Chorus
  D5                  E5    D5                  E5
  S S S S E S S E E S S E   S S S S E S S E E S S E
|-------------------------|-------------------------|
|-------------------------|-------------------------|
|-------------------------|-------------------------|
|-------------------------|-------------------------|
|-0-0-0-0---0-0-0---0-2-2-|-0-0-0-0---0-0-0---0-2-2-|
|-0-0-0-0---0-0-0---0-2-2-|-0-0-0-0---0-0-0---0-2-2-|


                                    D.S. al Coda
  F#5               D5E5    F#5
  S S S S E S S E E S S E   S S S S E S S E E Q
|-------------------------|----------------------||
|-------------------------|----------------------||
|-------------------------|----------------------||
|-------------------------|----------------------||
|-4-4-4-4---4-4-4---0-2-2-|-4-4-4-4---4-4-4------||
|-4-4-4-4---4-4-4---0-2-2-|-4-4-4-4---4-4-4------||


 Pre Chorus
  &
  D5    D Eb D5        D Eb D      F#5   C#G5/F#5         E5
  E S S S  S S E S S S S  S  S S   E S S S  S S E S S S E E
|--------------------------------|--------------------------|
|--------------------------------|--------------------------|
|-------7-/8-----------7-/8-\7---|-------6-/7---------------|
|-------x--x-----------x--x--x---|-------4-/5---------------|
|-0-0-0-5-/6-0-0-0-0-0-5-/6-\5p0-|-4-4-4-4-/5-4-4-4-4-4-4-2-|
|-0-0-0------0-0-0-0-0-----------|-4-4-4------4-4-4-4-4-4-2-|


  D5    D Eb D5        D Eb D      F#5   C#G5/F#5         E5
  E S S S  S S E S S S S  S  S S   E S S S  S S E S S S E E
|--------------------------------|--------------------------||
|--------------------------------|--------------------------||
|-------7-/8-----------7-/8-\7---|-------6-/7---------------||
|-------x--x-----------x--x--x---|-------4-/5---------------||
|-0-0-0-5-/6-0-0-0-0-0-5-/6-\5p0-|-4-4-4-4-/5-4-4-4-4-4-4-2-||
|-0-0-0------0-0-0-0-0-----------|-4-4-4------4-4-4-4-4-4-2-||


 Chorus
  D5                  E5    D5                  E5
  S S S S E S S E E S S E   S S S S E S S E E S S E
|-------------------------|-------------------------|
|-------------------------|-------------------------|
|-------------------------|-------------------------|
|-------------------------|-------------------------|
|-0-0-0-0---0-0-0---0-2-2-|-0-0-0-0---0-0-0---0-2-2-|
|-0-0-0-0---0-0-0---0-2-2-|-0-0-0-0---0-0-0---0-2-2-|


  F#5              D5E5    F#5             F#    E        D
  S S S S E S S Q  S S E   S S S S E S S S  S  S  S S S S  S
|------------------------|-----------------------------------|
|------------------------|-----------------------------------|
|------------------------|-----------------11-11-\9-9-9-9-\7-|
|------------------------|------------------x--x--x-x-x-x--x-|
|-4-4-4-4-4-4-4-4--0-2-2-|-4-4-4-4-4-4-4-4--9--9-\7-7-7-7-\5-|
|-4-4-4-4-4-4-4-4--0-2-2-|-4-4-4-4-4-4-4-4-------------------|


  D5                  E5    D5                  E5
  S S S S E S S E E S S E   S S S S E S S E E S S E
|-------------------------|-------------------------|
|-------------------------|-------------------------|
|-------------------------|-------------------------|
|-------------------------|-------------------------|
|-0-0-0-0---0-0-0---0-2-2-|-0-0-0-0---0-0-0---0h2-2-|
|-0-0-0-0---0-0-0---0-2-2-|-0-0-0-0---0-0-0---0-2-2-|


  F#5             D5E5    F#5             D5E5    D5
  S S S E. S S Q  S S E   S S S E. S S Q  S S E   W
|-----------------------|-----------------------|------|
|-----------------------|-----------------------|------|
|-----------------------|-----------------------|------|
|-----------------------|-----------------------|------|
|-4-4-4-4--4-4-4--0h2-2-|-4-4-4-4--4-4-4--0h2-2-|-0----|
|-4-4-4-4--4-4-4--0-2-2-|-4-4-4-4--4-4-4--0-2-2-|-0----|


 2/4
  +H
|--------||
|--------||
|--------||
|--------||
|-(0)----||
|-(0)----||

[ Tab from: http://www.guitartabs.cc/tabs/g/godsmack/moon_baby_tab_ver_7.html ]
 Bridge
  Q=124
  N.C.
 4/4
  Gtr I
   ~~~~~~~~~~~~~~~
   W          +W
|-----------|----------------------|
|-----------|----------------------|
|-----------|----------------------|
|-----------|----------------------|
|-/9--------|-(9)------------------|
|-----------|----------------------|
|
|             Gtr II
|              PM-------------| ~
|  W           S  E S E S E S E Q
|-----------|----------------------|
|-----------|----------------------|
|-----------|----------------------|
|-----------|----------------------|
|-----------|----------------------|
|-----------|--0--4-0-4-0-4-0-4-4--|


   ~~~
  +W                     S E S E S E S E Q
|----------------------|--------------------||
|----------------------|--------------------||
|----------------------|--------------------||
|----------------------|--------------------||
|-(9)------------------|-5-4-5-4-5-4-5-4----||
|----------------------|--------------------||
|
|                   ~                    PM
|  S  E S E S E S E Q    S E S E S E S E Q
|----------------------|--------------------||
|----------------------|--------------------||
|----------------------|--------------------||
|----------------------|--------------------||
|----------------------|--------------------||
|--0--4-0-4-0-4-0-4-4--|-0-4-0-4-0-4-0-4----||


    D5F#D5F#D5F#D5F#D5F#5       D5F#D5F#D5F#D5F#D5F#5
    S E S E S E S S S E   +E    S E S E S E S S S E   +E
||----------------------------|---------------------------|
||o---------------------------|---------------------------|
||----------------------------|---------------------------|
||----------------------------|---------------------------|
||o-0-4-0-4-0-4-0-4p0-4b5r(4)-|-0-4-0-4-0-4-0-4p0-4b5r(4)-|
||--0-4-0-4-0-4-0-4-0-4b5r(4)-|-0-4-0-4-0-4-0-4-0-4b5r(4)-|


  D5F#D5F#D5F#D5F#D5F#5       D5F#D5F#D5F#D5F#D5F#5
  S E S E S E S S S E   +E    S E S E S E S S S E   +E
|---------------------------|----------------------------||
|---------------------------|---------------------------o||
|---------------------------|----------------------------||
|---------------------------|----------------------------||
|-0-4-0-4-0-4-0-4p0-4b5r(4)-|-0-4-0-4-0-4-0-4p0-4b5r(4)-o||
|-0-4-0-4-0-4-0-4-0-4b5r(4)-|-0-4-0-4-0-4-0-4-0-4b5r(4)--||


    $$
    F#
      <                       <
      S  S  S  S  S  S  S  S  S  S  S  S  S  S  S  S
||---------------------------------------------------|
||o--------------------------------------------------|
||--/11-11-11-11-11-11-11-11-11-11-11-11-11-11-11-11-|
||----x--x--x--x--x--x--x--x--x--x--x--x--x--x--x--x-|
||o--/9--9--9--9--9--9--9--9--9--9--9--9--9--9--9--9-|
||---------------------------------------------------|


                     To Dbl. Coda
  E
   >                 >
   S S S S S S S S S S S S S S S S
|----------------------------------|
|----------------------------------|
|-\9-9-9-9-9-9-9-9-9-9-9-9-9-9-9-9-|
|--x-x-x-x-x-x-x-x-x-x-x-x-x-x-x-x-|
|-\7-7-7-7-7-7-7-7-7-7-7-7-7-7-7-7-|
|----------------------------------|


  D5F#D5F#D5F#D5F#D5F#5       D5F#D5F#D5F#D5F#D5F#5
  S E S E S E S S S E   +E    S E S E S E S S S E   +E
|---------------------------|----------------------------||
|---------------------------|---------------------------o||
|---------------------------|----------------------------||
|---------------------------|----------------------------||
|-0-4-0-4-0-4-0-4p0-4b5r(4)-|-0-4-0-4-0-4-0-4p0-4b5r(4)-o||
|-0-4-0-4-0-4-0-4-0-4b5r(4)-|-0-4-0-4-0-4-0-4-0-4b5r(4)--||


  E5   E5(type 2)
  Q.   E +Q   E E   E. S +E  E E E  Q
|-----------------|---------------------|
|------5-(5)--5-5-|-5--5-(5)-5-5--------|
|------4-(4)--4-4-|-4--4-(4)-4-4--------|
|-2----2-(2)--2-2-|-2--2-(2)-2-2--------|
|-2----2-(2)--2-2-|-2--2-(2)-2-2--------|
|-2----2-(2)--2-2-|-2--2-(2)-2-2-2S14\--|


  N.C.
  PM------------|           PM------------|
  S E S E S E S E E   +E    S E S E S E S E E   +E
|-------------------------|-------------------------|
|-------------------------|-------------------------|
|-------------------------|-------------------------|
|-------------------------|-------------------------|
|-------------------------|-------------------------|
|-0-4-0-4-0-4-0-4-4b5r(4)-|-0-4-0-4-0-4-0-4-4b5r(4)-|


                               D.S.S. al Dbl. Coda
                            D5F#D5F#D5F#D5F#D5F#5
  S E S E S E S E E   +E    S E S E S E S S S E   +E
|-------------------------|---------------------------||
|-------------------------|---------------------------||
|-------------------------|---------------------------||
|-------------------------|---------------------------||
|-------------------------|-0-4-0-4-0-4-0-4p0-4b5r(4)-||
|-0-4-0-4-0-4-0-4-4b5r(4)-|-0-4-0-4-0-4-0-4-0-4b5r(4)-||


  &&
  D5F#D5F#D5F#D5F#D5F#5       D5F#D5F#D5F#5   D5F#5
  S E S E S E S S S E   +E    S E S E S S +S  S E Q
|---------------------------|------------------------|
|---------------------------|------------------------|
|---------------------------|------------------------|
|---------------------------|------------------------|
|-0-4-0-4-0-4-0-4p0-4b5r(4)-|-0-4-0-4-0-4-(4)-0-4----|
|-0-4-0-4-0-4-0-4-0-4b5r(4)-|-0-4-0-4-0-4-(4)-0-4----|


   Outro
    D5F#D5F#D5F#D5F#D5F#5       D5F#D5F#D5F#D5F#D5F#5
    S E S E S E S S S E   +E    S E S E S E S S S E   +E
||----------------------------|---------------------------|
||o---------------------------|---------------------------|
||----------------------------|---------------------------|
||----------------------------|---------------------------|
||o-0-4-0-4-0-4-0-4p0-4b5r(4)-|-0-4-0-4-0-4-0-4p0-4b5r(4)-|
||--0-4-0-4-0-4-0-4-0-4b5r(4)-|-0-4-0-4-0-4-0-4-0-4b5r(4)-|


  D5F#D5F#D5F#D5F#D5F#5       D5F#D5F#D5F#D5F#D5F#5
  S E S E S E S S S E   +E    S E S E S E S S S E   +E
|---------------------------|----------------------------||
|---------------------------|---------------------------o||
|---------------------------|----------------------------||
|---------------------------|----------------------------||
|-0-4-0-4-0-4-0-4p0-4b5r(4)-|-0-4-0-4-0-4-0-4p0-4b5r(4)-o||
|-0-4-0-4-0-4-0-4-0-4b5r(4)-|-0-4-0-4-0-4-0-4-0-4b5r(4)--||


    F#
      <                       <
      S  S  S  S  S  S  S  S  S  S  S  S  S  S  S  S
||---------------------------------------------------|
||o--------------------------------------------------|
||--/11-11-11-11-11-11-11-11-11-11-11-11-11-11-11-11-|
||----x--x--x--x--x--x--x--x--x--x--x--x--x--x--x--x-|
||o--/9--9--9--9--9--9--9--9--9--9--9--9--9--9--9--9-|
||---------------------------------------------------|


  E
   >                 >
   S S S S S S S S S S S S S S S S   3x
|------------------------------------||
|-----------------------------------o||
|-\9-9-9-9-9-9-9-9-9-9-9-9-9-9-9-9\--||
|--x-x-x-x-x-x-x-x-x-x-x-x-x-x-x-x---||
|-\7-7-7-7-7-7-7-7-7-7-7-7-7-7-7-7\-o||
|------------------------------------||


  D5F#D5F#D5F#D5F#D5F#5       D5F#D5F#D5F#5   D5F#5
  S E S E S E S S S E   +E    S E S E S S +S  S E Q
|---------------------------|------------------------*|
|---------------------------|------------------------*|
|---------------------------|------------------------*|
|---------------------------|------------------------*|
|-0-4-0-4-0-4-0-4p0-4b5r(4)-|-0-4-0-4-0-4-(4)-0-4----*|
|-0-4-0-4-0-4-0-4-0-4b5r(4)-|-0-4-0-4-0-4-(4)-0-4----*|


Duration Legend
---------------
W - whole; H - half; Q - quarter; E - 8th; S - 16th; T - 32nd; X - 64th; a - acciaccatura
+ - note tied to previous; . - note dotted; .. - note double dotted
Uncapitalized letters represent notes that are staccato (1/2 duration)
Irregular groupings are notated above the duration line
Duration letters will always appear directly above the note/fret number it represents the
duration for.  Duration letters with no fret number below them represent rests.  Multi-
bar rests are notated in the form Wxn, where n is the number of bars to rest for.  Low
melody durations appear below the staff

Tablature Legend
----------------
 h   - hammer-on
 p   - pull-off
 b   - bend
 pb  - pre-bend
 r   - bend release (if no number after the r, then release immediately)
 /\  - slide into or out of (from/to "nowhere")
 s   - legato slide
 S   - shift slide
  - natural harmonic
[n]  - artificial harmonic
n(n) - tapped harmonic
 ~   - vibrato
 tr  - trill
 T   - tap
 TP  - trem. picking
 PM  - palm muting
\n/  - tremolo bar dip; n = amount to dip
 \n  - tremolo bar down
 n/  - tremolo bar up
/n\  - tremolo bar inverted dip
 =   - hold bend; also acts as connecting device for hammers/pulls
 <>  - volume swell (louder/softer)
 x   - on rhythm slash represents muted slash
 o   - on rhythm slash represents single note slash

Misc Legend
-----------
 |  - bar
||  - double bar
||o - repeat start
o|| - repeat end
*|  - double bar (ending)
 :  - bar (freetime)
 $  - Segno
 &  - Coda
Tempo markers -  = BPM(8/16=s8/s16), where s8 = swing 8ths, s16 = swing 16ths
Comments