Godsmack - Moon Baby Chords & Tabs

 

Moon Baby Chords & Tabs

Godsmack Chords & Tabs

Version: 5 Type: Tab 0 ratings
1 star 2 stars 3 stars 4 stars 5 stars
comments

Moon Baby Tab

Godsmack “Moonbaby” DADGBE tuning
tabs by haunted
|---------------------------------------------------------| 
|---------------------------------------------------------| 
|---------------------------------------------------------| x6 times
|-4-4-4-4-4--4-4-4---0-2-2---4-4-4-4-4--4-4-4-5-5-7-7-5-5-| 
|-4-4-4-4-4--4-4-4---0-2-2---4-4-4-4-4--4-4-4-5-5-7-7-5-5-| 
|-4-4-4-4-4--4-4-4---0-2-2---4-4-4-4-4--4-4-4-5-5-7-7-5-5-| 
 
|------------------------------------------| 
|------------------------------------------| 
|------------------------------------------| x2 times
|-0-0--------0-0---------4-4--------4-4-4--| 
|-0-0-5h6-5--0-0-5h6-5---4-4-4h5-4--4-4-4--| 
|-0-0--------0-0---------4-4--------4-4-4--| 
 
|---------------------------| 
|---------------------------| 
|---------------------------| x3 times
|-4-4-4-4-4--4-4-4---0-2-2--|
|-4-4-4-4-4--4-4-4---0-2-2--| 
|-4-4-4-4-4--4-4-4---0-2-2--| 
 
|---------------------------| 
|---------------------------| 
|---------------------------| x1 times
|--4-4-4-4-4--4-4-4---------| 
|--4-4-4-4-4--4-4-4---------| 
|--4-4-4-4-4--4-4-4---------| 

|---------------------------------------------------------| 
|---------------------------------------------------------| 
|---------------------------------------------------------| x4 times
|-4-4-4-4-4--4-4-4---0-2-2---4-4-4-4-4--4-4-4-5-5-7-7-5-5-| 
|-4-4-4-4-4--4-4-4---0-2-2---4-4-4-4-4--4-4-4-5-5-7-7-5-5-| 
|-4-4-4-4-4--4-4-4---0-2-2---4-4-4-4-4--4-4-4-5-5-7-7-5-5-| 

|------------------------------------------| 
|------------------------------------------| 
|------------------------------------------| x4 times
|-0-0--------0-0---------4-4--------4-4-4--|
|-0-0-5h6-5--0-0-5h6-5---4-4-4h5-4--4-4-4--| 
|-0-0--------0-0---------4-4--------4-4-4--| 

|---------------------------| 
|---------------------------| 
|---------------------------| x2 times
|-4-4-4-4-4--4-4-4---0-2-2--| 
|-4-4-4-4-4--4-4-4---0-2-2--| 
|-4-4-4-4-4--4-4-4---0-2-2--| 

|---------------------------------------------------------------| 
|---------------------------------------------------------------| 
|---------------------------------------------12-12-12-10-10-8--| x1 times
|-4--4-4--4-4-4-4--0-2--4--4-4--4-4-4-4--0-2--x--x--x--x--x--x--|
|-4--4-4--4-4-4-4--0-2--4--4-4--4-4-4-4--0-2--10-10-10-8--8--8--| 
|-4--4-4--4-4-4-4--0-2--4--4-4--4-4-4-4--0-2--------------------| 

|---------------------------| 
|---------------------------| 
|---------------------------| x2 times
|-4-4-4-4-4--4-4-4---0-2-2--| 
|-4-4-4-4-4--4-4-4---0-2-2--| 
|-4-4-4-4-4--4-4-4---0-2-2--| 



|-----------------------| 
|-----------------------| 
|-----------------------| x2 times
|-4--4-4--4-4-4-4--0-2--|
|-4--4-4--4-4-4-4--0-2--| 
|-4--4-4--4-4-4-4--0-2--| 
[ Tab from: http://www.guitartabs.cc/tabs/g/godsmack/moon_baby_tab_ver_5.html ]
|---------------------------| 
|---------------------------| 
|---------------------------| x3 times
|---------------------------| 
|---------------------------| 
|-0-4--0-4--0-4--0-4--4/5\4-| 
pm. .  . .  . .  . .  . . .

|---------------------------| 
|---------------------------| 
|---------------------------| x8 times
|-0-4--0-4--0-4--0-4--4/5\4-| 
|-0-4--0-4--0-4--0-4--4/5\4-| 
|-0-4--0-4--0-4--0-4--4/5\4-| 

|----------------------| 
|----------------------| 
|----------------------| x1 times
|----------------------| 
|-99999999997777777777-| 
|----------------------| 

|---------------------------| 
|---------------------------| 
|---------------------------| x2 times
|-0-4--0-4--0-4--0-4--4/5\4-| 
|-0-4--0-4--0-4--0-4--4/5\4-| 
|-0-4--0-4--0-4--0-4--4/5\4-| 

|----------------------| 
|----------------------| 
|----------------------| x1 times
|----------------------| 
|-99999999997777777777-| 
|----------------------| 

|---------------------------| 
|---------------------------| 
|---------------------------| x2 times
|-0-4--0-4--0-4--0-4--4/5\4-| 
|-0-4--0-4--0-4--0-4--4/5\4-| 
|-0-4--0-4--0-4--0-4--4/5\4-| 

|---------------------------| 
|---------------------------| 
|---------------------------| x2 times
|---------------------------| 
|---------------------------| 
|-0-4--0-4--0-4--0-4--4/5\4-| 
pm. .  . .  . .  . .  . . .

|---------------------------| 
|---------------------------| 
|---------------------------| x2 times
|---------------------------| 
|---------------------------| 
|-0-4--0-4--0-4--0-4--4/5\4-| 


|----------------------| 
|----------------------| 
|----------------------| x1 times
|----------------------| 
|-99999999997777777777-| 
|----------------------| 

|---------------------------| 
|---------------------------| 
|---------------------------| x2 times
|-0-4--0-4--0-4--0-4--4/5\4-| 
|-0-4--0-4--0-4--0-4--4/5\4-| 
|-0-4--0-4--0-4--0-4--4/5\4-| 

|----------------------| 
|----------------------| 
|----------------------| x1 times
|----------------------| 
|-99999999997777777777-| 
|----------------------| 

|---------------------------| 
|---------------------------| 
|---------------------------| x2 times
|-0-4--0-4--0-4--0-4--4/5\4-| 
|-0-4--0-4--0-4--0-4--4/5\4-| 
|-0-4--0-4--0-4--0-4--4/5\4-| 



Slight pause


|---------------------------| 
|---------------------------| 
|---------------------------| x8 times
|-0-4--0-4--0-4--0-4--4/5\4-| 
|-0-4--0-4--0-4--0-4--4/5\4-| 
|-0-4--0-4--0-4--0-4--4/5\4-| 

|----------------------| 
|----------------------| 
|----------------------| x3 times
|----------------------| 
|-99999999997777777777-| 
|----------------------| 

|---------------------------| 
|---------------------------| 
|---------------------------| x1 times
|-0-4--0-4--0-4--0-4--4/5\4-| 
|-0-4--0-4--0-4--0-4--4/5\4-| 
|-0-4--0-4--0-4--0-4--4/5\4-| 

|--------------------| 
|--------------------| 
|--------------------| x1 times
|-0-4--0-4--0-4--0-4-| 
|-0-4--0-4--0-4--0-4-| 
|-0-4--0-4--0-4--0-4-|
Comments