Godsmack - Moon Baby Chords & Tabs

 

Moon Baby Chords & Tabs

Godsmack Chords & Tabs

Version: 2 Type: Tab 0 ratings
1 star 2 stars 3 stars 4 stars 5 stars
comments

Moon Baby Tab

T1: Brian Josephs, AKndOfMgic@aol.com, Godsmack, Moon Baby 

  S1: "Moon Baby"- Godsmack 

  Tuning- C (2 steps down) 

  Godsmack uses dropped D tuning for most of their songs, but, since I C
  tune all the timme I did these transcriptions in C. 

  Sampled Intro 

  Intro/verse 
  c --------------------------------------------- 
  G --------------------------------------------- 
  D#--------------------------------------------- 
  A#--88888-888--4/6-6---88888-88/9-9/11-11\9-8-- 
  F --88888-888--4/6-6---88888-88/9-9/11-11\9-8-- 
  C --66666-666--2/4-4---66666-66/7-7/-9--9\7-6-- 
[ Tab from: http://www.guitartabs.cc/tabs/g/godsmack/moon_baby_tab_ver_2.html ]
  Chorus 
  c ------------------------------------------------- 
  G ------------------------------------------------- 
  D#------------------------------------------------- 
  A#-------4/5\4-------4/5\4------------------------- 
  F --4444--------4444--------8888-8h9p8--8888-8h9p8- 
  C --2222--------2222--------6666--------6666------- 

  Bridge 
  c -------------------------------------- 
  g -------------------------------------- 
  d#-------------------------------------- 
  a#--4--------4--------4----------------- 
  F --4--------4--------4----------------- 
  C --2--------2--------2----------------- 

  Ending 
  c -------------------------------------- 
  g -------------------------------------- 
  d#-------------------------------------- 
  a#-------------------------------------- 
  F -------------------------------------- 
  C --2-6-2-6-2-6-2-6-6/7\6--------------- 
  Godsmack probably plays the full power chords here 
Comments