Godsmack - Moon Baby Chords & Tabs

 

Moon Baby Chords & Tabs

Godsmack Chords & Tabs

Version: 1 Type: Tab 0 ratings
1 star 2 stars 3 stars 4 stars 5 stars
comments

Moon Baby Tab

   
Artist: Godsmack
Song: Moon Baby
Tuning: Dropped D (Low to High: DADGBE)
Transcribed by: Chris White

I saw one version of this song on this site. It was pretty right 
except it only had one part of the song.  Some of this may be wrong
but just change it up the way you see fit. Here ya go:

VERSE AND INTRO:

E|--------------------------------------------------------------------
B|--------------------------------------------------------------------
G|--------------------------------------------------------------------
D|--4-4-4-4-4-4--4-4-4-4--0-2--2-4-4-4-4-4-4--4-4-5-5-5/7-7-7-7\5-5-5-
A|--4-4-4-4-4-4--4-4-4-4--0-2--2-4-4-4-4-4-4--4-4-5-5-5/7-7-7-7\5-5-5-
D|--4-4-4-4-4-4--4-4-4-4--0-2--2-4-4-4-4-4-4--4-4-5-5-5/7-7-7-7\5-5-5-

PRE-CHORUS:

E|--------------------------------------------------------------------
B|--------------------------------------------------------------------
G|--------7/8\7-------7/8\7---------6/7\6-------6/7\6-----------------
D|-0--0-0-x-x-x-0-0-0-x-x-x--4--4-4-x-x-x-4-4-4-x-x-x--4--4--2--------
A|-0--0-0-5/6\5-0-0-0-5/6\5--4--4-4-4/5\4-4-4-4-4/5\4--4--4--2--------
D|-0--0-0-------0-0-0--------4--4-4-------4-4-4--------4--4--2--------

CHORUS:  HARD AND HEAVY
[ Tab from: http://www.guitartabs.cc/tabs/g/godsmack/moon_baby_tab.html ]
E|--------------------------------------------------------------------
B|--------------------------------------------------------------------
G|-------------T---------T--------------------------------------------
D|-0-0-0-0-0-0-S-0-0-0-0-S-0--2--2-4-4-4-4-4-4--4-4-4-4--0--2--2------
A|-0-0-0-0-0-0-E-0-0-0-0-E-0--2--2-4-4-4-4-4-4--4-4-4-4--0--2--2------
D|-0-0-0-0-0-0-R-0-0-0-0-R-0--2--2-4-4-4-4-4-4--4-4-4-4--0--2--2------

FILL 1:

E|-----------------------
B|-----------------------
G|-----------------------
D|-0--2--0-------------->
A|-0--2--0-let-ring----->
D|-0--2--0-------------->

INTRO TO BRIDGE:
         p.m------------------->
E|------------------------------
B|------------------------------
G|------------------------------
D|-4b5~~~-0-4-0-4-0-4-0-4-4h5p4-
A|------------------------------
D|------------------------------

BRIDGE: HARD AND HEAVY
                        |really fast w/ wah|
E|------------------------------------
B|-------------------------------------
G|-----------------------11111111999999
D|-0-4-0-4-0-4-0-4-4h5p4-x-x-x-x-xxxxxx
A|-0-4-0-4-0-4-0-4-4h5p4-9-9-9-9-777777
D|-0-4-0-4-0-4-0-4-4h5p4---------------

FILL 2:
                                   p.m------------------>
E|--------------------------------------------------------------------
B|--------------------------------------------------------------------
G|--------------------------------------------------------------------
D|-2--2--2--2-2-2--2--2--2--2-2-2--0-4-0-4-0-4-0-4-4h5p4--------------
A|-2--2--2--2-2-2--2--2--2--2-2-2--0-4-0-4-0-4-0-4-4h5p4--------------
D|-2--2--2--2-2-2--2--2--2--2-2-2--0-4-0-4-0-4-0-4-4h5p4--------------


---------->Chris (Statallica@aol.com)

Comments