Godsmack - Moon Baby Chords & Tabs

 

Moon Baby Chords & Tabs

Godsmack Chords & Tabs

Version: 1 Type: Bass Tab 0 ratings
1 star 2 stars 3 stars 4 stars 5 stars
comments

Moon Baby Bass Tab

   
moon baby
godsmack


Dropped D Tuning

Verse
G :| ----------------|---------------- |
D :|*----------------|----------------*|
A :|*----------------|----------------*|
D :| 44444-4444--022-|44444-4444557755 |

Verse Variation
G :|----------------|----------------|
D :|----------------|----------------|
A :|----------------|----------------|
D :|44444-4444--022-|44444-4444------|

Chorus
G :| ----------------|---------------- |
D :|*----------------|----------------*|
A :|*----565-----565-|----454---------*|
D :| 0-00---0-0-0----|4-44---4-4-44-2- |
[ Tab from: http://www.guitartabs.cc/tabs/g/godsmack/moon_baby_btab.html ]
"Why is it everyday?" part (Post-Chorus)
G :| ---------------- |
D :|*----------------*|
A :|*----------------*|
D :| 00000-0000--022- |

End Riff 1
G :| ---------------- |
D :|*----------------*|
A :|*----------------*|
D :| 04-04-04-04-454- |

End Riff 2
G :| ---------------- |
D :| ----2-------2--- |
A :| --2-------2----- |
D :| 2-------2------- |

End Riff 3
G :| ---------------- |
D :| ---------------- |
A :| ---------------- |
D :| 04-04-04-04----- |


Order:

Verse 6x
Chorus 2x
Post-Chorus 2x
Verse Variation
Verse 4x
Chorus 4x
Post-Chorus 2x
Verse 1x (Different Rhythm)
Post-Chorus 2x
Verse 1x (Different Rhythm)
Play 4th string D at fret 4
End Riff 1 20x
End Riff 2 1x
End Riff 1 11x
End Riff 3 1x
End Riff 1 15x
End Riff 4 1x

Comments