Godsmack - Mistakes Chords & Tabs

 

Mistakes Chords & Tabs

Godsmack Chords & Tabs

Version: 3 Type: Tab 0 ratings
1 star 2 stars 3 stars 4 stars 5 stars
comments

Mistakes Tab

--------------------------------------------------------------------------------
                         Mistakes - Godsmack
--------------------------------------------------------------------------------


Tabbed by:Bryan Maldonado
email: prsibanez02@aol.com


Tuning:drop c tuning cgcfad

d|---------------------------------------------|
a|---------------------------------------------|
f|---------------------------------------------|
c|---------------------------------------------|
g|---------------------------------------------|
c|-15-0-13-10-12-13-12-----0-15-0-13-12-10-12--|  play riff  x10


d|-------------------------|
a|-------------------------|
f|-------------------------|
c|-------------------------|
g|--------------------10---|
c|-15-0-13-0-10-12-13-10---|
                      let ring

d|-----------------------------------------------------|
a|-----------------------------------------------------|
f|-----------------------------------------------------|
c|-----------------------------------------------------|
g|-15-0-13-0-10-12-13-12-------0-15-0-13-12-10-12------|
c|-15-0-13-0-10-12-13-12-------0-15-0-13-12-10-12------| play riff x4


d|---------------------------------------------|
a|---------------------------------------------|
f|---------------------------------------------|
c|---------------------------------------------|
g|-0-0-0-0----0-0-0---0------0-0--10----8-8----|
c|-0-0-0-0----0-0-0---0------0-0--10----8-8----|    play riff   x8
   No________________________________    I dont

[ Tab from: http://www.guitartabs.cc/tabs/g/godsmack/mistakes_tab_ver_3.html ]
d|------------------------------------|
a|------------------------------------|
f|------------------------------------|
C|------------------------------------|
G|-5-5-5-5-5-5-5-5----5-5-6-6--3-3-0--|
c|-5-5-5-5-5-5-5-5----5-5-6-6--3-3-0--|     play riff  x4
      Ev_____ry  breath you breath deep


              P.M.--------|
d|---------------------------------------|
a|---------------------------------------|
f|---------------------------------------|
c|-1------1-------------------1-1-1-1-1--|
g|-1------1-------------------1-1-1-1-1--|
c|-1------1----1-1-1-1-1-1----1-1-1-1-1--|
     God help me_______

   P.M.----------------------------------|
d|--------------------------------------------|
a|--------------------------------------------|
f|--------------------------------------------|
c|--------------------------------------------|
g|--------------------------------------------|
c|-12-0-0-13-0-0-12-0--0-13-0-0-12-0-10-0-----|  play riff x6



d|-------------------------------------------------|
a|-------------------------------------------------|
f|-------------------------------------------------|
c|-------------------------------------------------|
g|-12-0-0-0-13-0-0-0-12-0-0--0-13-0-0-12-0-10-0----|
c|-12-0-0-0-13-0-0-0-12-0-0--0-13-0-0-12-0-10-0----|   play riff x6

No   I dont feel a thing. Life's going by me. And still I say,  "Oh god, i'm
making the same mistakes.   Low I'm on empty try to erase all the bad times.
free I dont seem to be. My soul remains tied to your life. Evry breath you breath
deep i feel you circulating through me.   yeah oh  i'll never forgive myself agin
I'm so sick and tired of makin the same mistakes those same mistakes.  yeah
oh   God help me   god help me.
Comments