Godsmack - Make Me Believe Chords & Tabs

 

Make Me Believe Chords & Tabs

Godsmack Chords & Tabs

Version: 3 Type: Tab 0 ratings
1 star 2 stars 3 stars 4 stars 5 stars
comments

Make Me Believe Tab

Band- Godsmack
Song- Make Me Believe
Tuning- Drop D

Intro (Chorus) x2:
            x3                       then:
D--------------------------------|--------------------------|
A--------------------------------|--------------------------|
F--------------------------------|--------------------------|
C---------101010---8-8-8---7-7-7-|--------------------------|
G---0-000--8-8-8---6-6-6---5-5-5-|-55-55-55------3-----1----|
C---0-000--------0-------0-------|-55-55-55--0-0-3-0-0-1----|
PM                                           . .   . .

Verse x2:
D--------------------------------------------------------------------|
A--------------------------------------------------------------------|
F--------------------------------------------------------------------|
C--------------------------------------------------------------------|
G--------------------------------------------------------------------|
C---0--0-0-0--0-0-0-8-8-8-8-7-7-7----0--0-0-0-8-8-8-8-7-7-7-7-5-5-5--|
PM  .  . . .  . . . . . . . . . .    .  . . . . . . . . . . . . . .

Prechorus:
D---------------------------   -------------------------------|
A---7-7-7-------------------   -7-7-7-------------------------|
F---7-7-7-------------------   -7-7-7-------------------------|
C---7-7-7-------------------   -7-7-7-------------------------|
G---5-5-5-------------------   -5-5-5--8-8-8-8\7-7-7-7\5-5-5--|
C------------8-8-8-8-7-7-7--   --------8-8-8-8\7-7-7-7\5-5-5--|
PM           . . . . . . .


Repeat Chorus
[ Tab from: http://www.guitartabs.cc/tabs/g/godsmack/make_me_believe_tab_ver_3.html ]
After Chorus x2:
D-------------------------------------------------------------------|
A-------------------------------------------------------------------|
F-------------------------------------------------------------------|
C-------------------------------------------------------------------|
G-------------------------------------------------------------------|
C--0--0-0-0--0-0-0-8-8-8-8-7-7-7-----0--0-0-0-8-8-8-8\7-7-7-7\5-5-5-|
PM .  . . .  . . . . . . . . . .     .  . . .


Play Verse
Play Prechorus
Play Chorus x2

Bridge:
D----------------------------------------|
A----------------------------------------|
F------------------------------10--------|
C---------------10~-----10-------10------|
G---0~---/12~\---8~--------8-------8-----|
C---0~---/12~\---8~---8------8-----------|

Solo w/wah:
D---------------------------------------------|
A---13---13---13--13---13--13----13--13--13---|
F---12^--12^--12^-12^--12^-12^---12^-12^-12^--|
C---------------------------------------------|
G---------------------------------------------|
C---------------------------------------------|

D----------------------------------------------|
A----------------------------------------------|
F--12^--12^-12^-12^-12^-12-12-12----10-12~~~~~-|
C----------------------------------------------|
G----------------------------------------------|
C----------------------------------------------|

D----------10-------------------|
A--------12---12p10----10-13^---|
F----12^------------13----------|
C-------------------------------|
G-------------------------------|
C-------------------------------|

Play chorus until end

ENJOY!!!!
Comments