Godsmack - Make Me Believe Chords & Tabs

 

Make Me Believe Chords & Tabs

Godsmack Chords & Tabs

Version: 2 Type: Tab 0 ratings
1 star 2 stars 3 stars 4 stars 5 stars
comments

Make Me Believe Tab

Band: Godsmack
Song: Make Me Believe
Tabbed By: Nick Treglown
Tuning: CGCFAD

PM.=Palm Mute
~  =Let Ring 
INTRO
|------------------------------------------------|
|------------------------------------------------|
|------------------------------------------------|
|-0-0----15-15-15-15---13-13-13-13---12-12-12-12-|
|-0-0----15-15-15-15---13-13-13-13---12-12-12-12-|	x3
|-0-0----15-15-15-15---13-13-13-13---12-12-12-12-|

Fill
|------------------------|                                                    
|------------------------|
|------------------------|
|----5-5-5-5--0-0-3-0-0-1|
|----5-5-5-5--0-0-3-0-0-1|
|----5-5-5-5--0-0-3-0-0-1|
PM            ...   ...

VERSE
|-----------------------------------------|
|-----------------------------------------|
|-----------------------------------------|
|-----------------------------------------|
|-----------------------------------------|
|0-0-0-0-0--8-8-8-8-8-7-7-7-7-7-5-5-5-5-5-|
PM.......................................
[ Tab from: http://www.guitartabs.cc/tabs/g/godsmack/make_me_believe_tab_ver_2.html ]
FILL                                  
|---------------------------------|
|---------------------------------|
|-7-7-7---------------------------|
|-7-7-7---------------------------|x4
|-5-5-5---------------------------|
|---------8-8-8-7-7-7-7-5-5-5-----|
first time palm mute 8,7 and 5 second time play open as power chords and then repeat

CHORUS:
|------------------------------------------------|
|------------------------------------------------|
|------------------------------------------------|
|-0-0----15-15-15-15---13-13-13-13---12-12-12-12-|
|-0-0----15-15-15-15---13-13-13-13---12-12-12-12-|
|-0-0----15-15-15-15---13-13-13-13---12-12-12-12-|
                                                                              

BRIDGE:
|--------------------------------|
|--3--------------------8--------|
|--2--------------------10-------|
|--0--------------------8--------|
|--0--------------------8--------|
|--0--------------------8--------|
                   

ENDING:
|---------------------------------------------------|
|------------------------------------------------3~-|
|------------------------------------------------2~-|
|-0-0----15-15-15-15---13-13-13-13---12-12-12-12-0~-|
|-0-0----15-15-15-15---13-13-13-13---12-12-12-12-0~-|	x3
|-0-0----15-15-15-15---13-13-13-13---12-12-12-12-0~-|
Comments