Godsmack - Keep Away Chords & Tabs

 

Keep Away Chords & Tabs

Godsmack Chords & Tabs

Version: 2 Type: Bass Tab 1 rating
1 star 2 stars 3 stars 4 stars 5 stars
comments

Keep Away Bass Tab

   
                              Godsmack
                             Keep Away
                              Bass Tab 
                           D,A,D,G Tuning
                     Transcribed By: Lynn Smith
                      Tabbed By: Jordy Smith


                  Verse
G---------------------------------------
D---------------------------------------
A---------------------------------------
D-0-0-0h3-3-3-3-33-3/5-5-5-55-5h6-6-5-3-

[ Tab from: http://www.guitartabs.cc/tabs/g/godsmack/keep_away_btab_ver_2.html ]
                 Chorus
G-------7-----------------------------
D---0h7-------------------------------
A---------33333-33-0-0-0-0-1111-33-55-
D-0-----------------------------------


 Other Part 1
G------------
D------------
A------------
D-0000-00000-


           Other Part 2
G---------------------------------
D---------------------------------
A-5555-77777-7777-8888-77777-3333-
D---------------------------------


             Other Part 3
G-------------------------------------
D-------------------------------------
A-5555-77777-7777-8888-1010101010-10\-
D-------------------------------------


It might not be 100% but it's very close compared to a lot of tabs 
I've seen. If you have any questions, comments, or corrections, email
me at:  bass_kid_2000@yahoo.com 
Comments