Godsmack - Immune Chords & Tabs

 

Immune Chords & Tabs

Godsmack Chords & Tabs

Version: 1 Type: Tab 0 ratings
1 star 2 stars 3 stars 4 stars 5 stars
comments

Immune Tab

Immune-Godsmack
Tabbed by Robert Hamner
Drop D tuning

On the verse, I didn't tab it out exactly I don't think, so just do 
different stuff with a wah that sounds smooth and uses d,e, and f 
for the most part
 intro(D5)          verse(patience...)          (ex. of adlib on verse)
e----------------]--------------------------]-10---------------------------
b----------------]--------------------------]--x--------------------------       
g-7~----5  9 7~--] 7 xx 5h7 x 7 x 5h7 7 7~--]--7--xx 5h7 7 7 5h7 8 7 5h7-----------------------------------------------------
d----------------]--------------------------]---------------------------
a----------------]--------------------------]----------------------------
D----------------]--------------------------]----------------------------
w/wah

chorus(yeah, face it...)      play intro over this
e---------------------------]-------------------------------------------
b---------------------------]-------------------------------------------
g---------------------------]-------------------------------------------
d---------------------------]-------------------------------------------
a-0---0-0-2--0-2--0-2/3-3-3-]-0------------------------------------------------------
D-0---0-0-2--0-2--0-2/3 3-3-]-0-------------------------------------------------------
[ Tab from: http://www.guitartabs.cc/tabs/g/godsmack/immune_tab.html ]
On this section, play short and choppy chords.  Play the chord, then 
put your right palm on the strings very quickly to muffle it.  Mess 
with it, and listen to the cd to get the rhythm and all.
  interlude 1          1       2      3        4
e---------------------]------]-------]-------]--------]---------------------
b---------------------]------]-------]-------]--------]---------------------
g---------------------]------]-------]-------]--------]---------------------
d---------------------]------]-------]-------]--------]---------------------
a-0--0-0---0-0--0-0--0]-0h2-2]-0h3-3-]-0h2-2-]-oh2-2/3]-----------------------------------------------
D-0--0-0---0-0--0-0--0]-0h2-2]-0h3-3-]-0h2-2-]-0h2-2/3]----------------------------------------------
The numbers above the segments are the endings.  Play the first riff,
but on the first time, end with 1, second time, end with 2, etc.

interlude 2
e----------------------------------------------------------------------
b----------------------------------------------------------------------
g-7----9-10---12-9---5-5/7----7-7-----9-10-10-----12-9-----5-5/7---------------------------------
d-x----x--x----x-x---x-x------x-x-----x-x---x------x-x-----x-x------------------------
a-5----7--8---10-7---3-3/5----5-5-----7-8---8-----10-7-----3-3/5----------------------------
D---------------------------------0-0---------0-0------0-0-----0--------------


For the solos at the end, just make up stuff with a wah using these 
scales

e-13-10---------------8-5----------20-17-----------------------------------------
b-------13-10-------------8-5------------20-17-----------------------------------
g-------------12-10-----------7-5--------------19-17-----------------------------


For the bass line, drop down to D, and play this
  intro, verse, and interlude 2  chorus
a--------5---5----5/7-7-7-----]----------------------]-------------------------
D-0--0-0---0----0-------------]0--0-0-2-0-2-0-2/3-3-3]------------------------------------

interlude 1           1      2      3      4
a-----------------]-------]------]------]--------]--------------------------
D-0--0-0-0-0-0-0-0]-0h2-2-]-0h3-3]-0h2-2]-0h2-2/3]--------------------------------------------------

setup as follows:
guitar-intro
       verse
       chorus
       verse
       chorus(X2)
       interlude 1
       interlude 2
       verse
       chorus(x2)
       interlude 1(many times)

bass-  intro
       chorus
       intro
       chorus
       interlude 1
       intro
       chorus
       interlude 1(many times)
h=hammer on
/=slide up
~=vibrato
x=muted string

Comments