Godsmack - I Stand Alone Chords & Tabs

 

I Stand Alone Chords & Tabs

Godsmack Chords & Tabs

Version: 8 Type: Tab 0 ratings
1 star 2 stars 3 stars 4 stars 5 stars
comments

I Stand Alone Tab

   
Godsmack - I Stand Alone

Tuning - C,G,C,F,A,D

\ = Slide Down
x = Muted Note
p = Pull Off
h = Hammer on
~ = Let Ring
/ = Slide Up
< = Pick Scratch
* = Harmonic

 Intro 1:
Guitar 1 (Heavy Distortion)
|-----------------------------------|
|-----------------------------------|
|-----------------------------------| x4
|-----------------------------------|
|--------12-12-----13-13-----13-13--|
|--0-0-0-------0-0-------0-0--------|

Guitar 2 - After 2 times of Guitar 1 (Heavy Distortion with Flanger)
|-----------------------------------|
|-----------------------------------|
|-----------------------------------| x2
|-----------------------------------|
|--0-0-0-------0-0-------0-0--------|
|--0-0-0-7*-7*-0-0-7*-7*-0-0-7*-7*--|

 Intro 2:
Guitar 1 (Heavy Distortion)
|-----------------------------------|
|-----------------------------------|
|-----------------------------------| x3
|-----------------------------------|
|--------12-12-----13-13-----13-13--|
|--0-0-0-------0-0-------0-0--------|

Guitar 2 (Heavy Distortion)
|-----------------------------------|
|-----------------------------------|
|-----------------------------------| x3
|-----------------------------------|
|--0-0-0-------0-0-------0-0--------|
|--0-0-0-7*-7*-0-0-7*-7*-0-0-7*-7*--|


 Pre-Verse:
Guitar 1 (Heavy Distortion)
|---------------------------------|
|---------------------------------|
|---------------------------------|
|---------------------------------|
|--------12-12-----13-13-----13\--|
|--0-0-0-------0-0-------0-0-13\--|

Guitar 2
|---------------------------------|
|---------------------------------|
|---------------------------------|
|---------------------------------|
|--0-0-0-------0-0-------0-0-13\--|
|--0-0-0-7*-7*-0-0-7*-7*-0-0-13\--|

 Verse 1:
Guitars 1 & 2 (Heavy Distortion)
|----------------------------------------------------------------------------------------|
|----------------------------------------------------------------------------------------|
|----------------------------------------------------------------------------------------|
|--0-0-xx-0-0-xx-6-6-6--0-0-xx-0-0-xx-6p3h5-5--0-0-xx-0-0-xx-6-6-6--0-0-xx-0-0-xx--xx-x--|
|--0-0-xx-0-0-xx-6-6-6--0-0-xx-0-0-xx-6p3h5-5--0-0-xx-0-0-xx-6-6-6--0-0-xx-0-0-xx--xx-x--|
|--0-0-xx-0-0-xx-6-6-6--0-0-xx-0-0-xx-6p3h5-5--0-0-xx-0-0-xx-6-6-6--0-0-xx-0-0-xx--xx-x--|

|------------------------------------------------------------------------|
|------------------------------------------------------------------------|
|------------------------------------------------------------------------|
|--0-0-xx-0-0-xx-6-6-6--0-0-xx-0-0-xx-6p3h5-5--0-0-xx-0-0-xx-6-6-6--6~~--|
|--0-0-xx-0-0-xx-6-6-6--0-0-xx-0-0-xx-6p3h5-5--0-0-xx-0-0-xx-6-6-6--6~~--|
|--0-0-xx-0-0-xx-6-6-6--0-0-xx-0-0-xx-6p3h5-5--0-0-xx-0-0-xx-6-6-6--6~~--|


 Chorus:
Guitars 1 & 2 (Heavy Distortion)
|-----------------------------------|    |---------------------------------|
|-----------------------------------|    |---------------------------------|
|-----------------------------------| x3 |---------------------------------|
|-----------------------------------|    |---------------------------------|
|--------12-12-----13-13-----13-13--|    |--------12-12-----13-13-----13\--|
|--0-0-0-------0-0-------0-0--------|    |--0-0-0-------0-0-------0-0-13\--|


 Verse 2:
Guitars 1 & 2 (Heavy Distortion)
|----------------------------------------------------------------------------------------|
|----------------------------------------------------------------------------------------|
|----------------------------------------------------------------------------------------|
|--0-0-xx-0-0-xx-6-6-6--0-0-xx-0-0-xx-6p3h5-5--0-0-xx-0-0-xx-6-6-6--0-0-xx-0-0-xx--xx-x--|
|--0-0-xx-0-0-xx-6-6-6--0-0-xx-0-0-xx-6p3h5-5--0-0-xx-0-0-xx-6-6-6--0-0-xx-0-0-xx--xx-x--|
|--0-0-xx-0-0-xx-6-6-6--0-0-xx-0-0-xx-6p3h5-5--0-0-xx-0-0-xx-6-6-6--0-0-xx-0-0-xx--xx-x--|

|------------------------------------------------------------------------------------------|
|------------------------------------------------------------------------------------------|
|------------------------------------------------------------------------------------------|
|--0-0-xx-0-0-xx-6-6-6--0-0-xx-0-0-xx-6p3h5-5--0-0-xx-0-0-xx-6-6-6--0-0-xx-0-0-xx-6h3p5-5--|
|--0-0-xx-0-0-xx-6-6-6--0-0-xx-0-0-xx-6p3h5-5--0-0-xx-0-0-xx-6-6-6--0-0-xx-0-0-xx-6h3p5-5--|
|--0-0-xx-0-0-xx-6-6-6--0-0-xx-0-0-xx-6p3h5-5--0-0-xx-0-0-xx-6-6-6--0-0-xx-0-0-xx-6h3p5-5--|

 Post-Verse 2/Pre-Chorus 2:
Guitars 1 & 2 (Heavy Distortion)
|----------------------------------------|
|----------------------------------------|
|--7--7--7--7--7--7/10-10-10-10----------|
|--5--5--5--5--5--5/8--8--8--10--0--1-1--|
|--5--5--5--5--5--5/8--8--8--8---0--1-1--|
|--5--5--5--5--5--5/8--8--8--8---0--1-1--|
        "I'm not afraid of fadin'..."

 Chorus:
Guitars 1 & 2 (Heavy Distortion)
|------------------------------------------------------------------|
|------------------------------------------------------------------|
|------------------------------------------------------------------|
|------------------------------------------------------------------|
|--------12-12-----13-13-----13-13--------12-12-----13-13-----13/--|
|--0-0-0-------0-0-------0-0--------0-0-0-------0-0-------0-0------|
  "I!!!...............STAND ALONE!!!............FEELING YOUR..."

|------------------------------------------------------|
|------------------------------------------------------|
|--7----7---7---7----7---7/10--10--10--10--10--10--10--|
|--5----5---5---5----5---5/8---8---8---8---8---8---8---|
|--5----5---5---5----5---5/8---8---8---8---8---8---8---|
|--5----5---5---5----5---5/8---8---8---8---8---8---8---|
  "STING DOWN INSIDE ME, I'M NOT DYIN' FOR IT!!!..."

|------------------------------------------------------------------|
|------------------------------------------------------------------|
|------------------------------------------------------------------|
|------------------------------------------------------------------|
|--------12-12-----13-13-----13-13--------12-12-----13-13-----13/--|
|--0-0-0-------0-0-------0-0--------0-0-0-------0-0-------0-0------|
  "I!!!..................STAND ALONE!!!....................Every-"

|---------------------------------------|
|---------------------------------------|
|--7--7--7--7--7--7/10-10-10-10-10------|
|--5--5--5--5--5--5/8--8--8--8--8--1-1--|
|--5--5--5--5--5--5/8--8--8--8--8--1-1--|
|--5--5--5--5--5--5/8--8--8--8--8--1-1--|
 "-thing that i bel-ieve is fadin"


 Pre-Bridge:
Guitars 1 & 2 (Heavy Distortion)
|-----------------------------------|
|-----------------------------------|
|-----------------------------------| x3
|-----------------------------------|
|--------12-12-----13-13-----13-13--|
|--0-0-0-------0-0-------0-0--------|

Guitar 1 (Distorted)
|----------------------------------------------------------|
|----------------------------------------------------------|
|----------------------------------------------------------|
|-----------------------------------0~~--------------------|
|--------12-12-----13-13-----13-13--0~~--------------------|
|--0-0-0-------0-0-------0-0--------0~~--------------------|

Guitar 2 (Distorted with Flanger)
|----------------------------------------------------------|
|----------------------------------------------------------|
|----------------------------------------------------------|
|-----------------------------------0~~--------------------|
|--------12-12-----13-13-----13-13--0~~---<<<<<<<<<<<<<<<--|
|--0-0-0-------0-0-------0-0--------0~~--------------------|

 Bridge:
Guitar 1 (Clean)
|-------------------------------------------------------------------------------------|
|-------------------------------------------------------------------------------------|
|-------------------------------------------------------------------------------------|
|-------------------5-----------------5--2/5-5-5---2/3-3-3--0-------0--------------0--|
|----------------3-----------------3-----2/5-5-5---2/3-3-3--0---0---------------0-----|
|-------------3-----------------3--------2/5-5-5---2/3-3-3--0----------------0--------|
  "Now it's my time (Now it's my time)  Itís  my  time  to  dream (Itís my time to dream)"

Guitar 2 (Slightly Distorted)
|-------------------------------------------------------------------------------------|
|-------------------------------------------------------------------------------------|
|-------------------------------------------------------------------------------------|
|--------------0~~~~~~~------------------2/5-5-5---2/3-3-3----------------------------|
|------------------------------0~~~~-----2/5-5-5---2/3-3-3-------<<<<<<<<<<<<<<<------|
|----------------------------------------2/5-5-5---2/3-3-3----------------------------|
                                        (Play very quietly)

Guitar 1 (Clean)
|----------------------------------------------|
|----------------------------------------------|
|----------------------------------------------|
|-----------------------5-------------------5--|
|--------------------3-------------------3-----|
|-----------------3-------------------3--------|
  "Dream of the skies (Dream of the skies)"
[ Tab from: http://www.guitartabs.cc/tabs/g/godsmack/i_stand_alone_tab_ver_8.html ]
Guitar 1 (Clean)
|---------------------------------------------------------------------------------------|
|---------------------------------------------------------------------------------------|
|---------------------------------------------------------------------------------------|
|--0-------0--2--------------0------------------2------------------------5-----------5--|
|--0----0---------------0-----------------0--------------------------3-----------3------|
|--0---------------0-----------------0---------------------------3-----------3----------|
  "Make me believe That this place isnt plagued By the poison in me......."

Guitar 2 (Slightly Distorted with Echo)
|---------------------------------------------------------------------------------------|
|---------------------------------------------------------------------------------------|
|---------------------------------------------------------------------------------------|
|----------------------------2----------------------------------------------------------|
|-----------------------0---------------------------------------------------------------|
|------------------0--------------------------------------------------------------------|
  "Make me believe That this place isnt plagued By the poison in me......."

Guitar 3 (Heavy Distortion with Fuzz)
|---------------------------------------------------------------------------------------|
|---------------------------------------------------------------------------------------|
|---------------------------------------------------------------------------------------|
|---------------------------------------------------------------------------------------|
|----------------------------------0-0------0-0-------------0-0-0-----------------------|
|----------------------------------0-0------0-0-------------0-0-0-----------------------|
  "Make me believe That this place isnt plagued By the poison in me......."

Guitar 1 (Clean)
|--------------------------------------------------------------------------|
|--------------------------------------------------------------------------|
|--------------------------------------------------------------------------|
|--2/5-5-5--2/3-3-3--0----2--------------0---2--------------------------5--|
|--2/5-5-5--2/3-3-3--0-0------------0-------------------------------3------|
|--2/5-5-5--2/3-3-3--0---------0--------------------------------3----------|
  "Help  me de-cide if my fire will burn out Before you can breathe"

Guitar 2 (Distorted)
|--------------------------------------------------------------------------|
|--------------------------------------------------------------------------|
|--------------------------------------------------------------------------|
|--2/5-5-5--2/3-3-3--0~~~~~~~~~~~------------------------------------------|
|--2/5-5-5--2/3-3-3--0~~~~~~~----------------------------------------------|
|--2/5-5-5--2/3-3-3--0~~~--------------------------------------------------|
  "Help  me de-cide if my fire will burn out Before you can breathe"

Guitars 1 & 2 (Heavy Distortion)
|-------------------|
|-------------------|
|-------------------|
|--2/5-5-5-2/3-3-3--|
|--2/5-5-5-2/3-3-3--|
|--2/5-5-5-2/3-3-3--|
  "Breathe into me"

 Post-Bridge
Guitar 1 (Distorted with Wah)
|------------------------------------------------------------------------------------|
|------------------------------------------------------------------------------------|
|------------------------------------------------------------------------------------|
|------------------------------------------------------------------------------------|
|--15h17-xx15h17xx15h17xx15h17xx17p16-14\13-5h17-xx15h17xx15h17xx15h17xx17p16-14\13--|
|------------------------------------------------------------------------------------|

Guitar 2 (Heavy Distortion with Flanger)
|------------------------------------------------------------------------------------|
|------------------------------------------------------------------------------------|
|------------------------------------------------------------------------------------|
|--0---0---x--x---0---0--x--x---6---6---6---0---0---x--x---0---0---x--x---6p3h5---5--|
|--0---0---x--x---0---0--x--x---6---6---6---0---0---x--x---0---0---x--x---6p3h5---5--|
|--0---0---x--x---0---0--x--x---6---6---6---0---0---x--x---0---0---x--x---6p3h5---5--|

Guitar 1 (Distorted with Wah)
|----------------------------------------------|
|----------------------------------------------|
|----------------------------------------21~~--|
|----------------------------------------x-----|
|--15h17-xx1517xx1517xx1517xx17p16-14\13/19~~--|
|----------------------------------------------|

Guitar 2 (Heavy Distortion with Flanger)
|----------------------------------------------|
|----------------------------------------------|
|----------------------------------------------|
|--0---0---x--x---0---0--x--x--6--6--6---6~~---|
|--0---0---x--x---0---0--x--x--6--6--6---6~~---|
|--0---0---x--x---0---0--x--x--6--6--6---6~~---|


 Last Chorus:
Guitars 1 & 2 (Heavy Distortion)
|-----------------------------------------------|
|-----------------------------------------------|
|-----------------------------------------------|
|-----------------------------------------------|
|--------12-12-----13-13-----13-13-------12-12--|
|--0-0-0-------0-0-------0-0-------0-0-0--------|
  "I!!!...............STAND ALONE!!!....INSIDE!!!"

|------------------------------------------------------------------|
|------------------------------------------------------------------|
|------------------------------------------------------------------|
|------------------------------------------------------------------|
|--------12-12-----13-13-----13-13--------12-12-----13-13-----13/--|
|--0-0-0-------0-0-------0-0--------0-0-0-------0-0-------0-0------|
  "I!!!...............STAND ALONE!!!............FEELING YOUR..."

|------------------------------------------------------|
|------------------------------------------------------|
|--7----7---7---7----7---7/10--10--10--10--10--10--10--|
|--5----5---5---5----5---5/8---8---8---8---8---8---8---|
|--5----5---5---5----5---5/8---8---8---8---8---8---8---|
|--5----5---5---5----5---5/8---8---8---8---8---8---8---|
  "STING DOWN INSIDE ME, I'M NOT DYIN' FOR IT!!!..."

|------------------------------------------------------------------|
|------------------------------------------------------------------|
|------------------------------------------------------------------|
|------------------------------------------------------------------|
|--------12-12-----13-13-----13-13--------12-12-----13-13-----13/--|
|--0-0-0-------0-0-------0-0--------0-0-0-------0-0-------0-0------|
  "I!!!..................STAND ALONE!!!....................Every-"

|---------------------------------------|
|---------------------------------------|
|--7--7--7--7--7--7/10-10-10-10-10------|
|--5--5--5--5--5--5/8--8--8--8--8--1-1--|
|--5--5--5--5--5--5/8--8--8--8--8--1-1--|
|--5--5--5--5--5--5/8--8--8--8--8--1-1--|
 "-thing that i bel-ieve is fadin"


 Outro part 1:
Guitars 1 & 2 (Heavy Distortion)
|-----------------------------------|
|-----------------------------------|
|-----------------------------------| x4
|-----------------------------------|
|--------12-12-----13-13-----13-13--|
|--0-0-0-------0-0-------0-0--------|

 Outro part 2:
Guitar 1 (Heavy Distortion)
|-----------------------------------|
|-----------------------------------|
|-----------------------------------| x4
|--0-0-0-7--7--0-0-8--8--0-0-8--8---|
|--0-0-0-7--7--0-0-8--8--0-0-8--8---|
|--0-0-0-7--7--0-0-8--8--0-0-8--8---|

Guitar 2 (Heavy Distortion)
|-----------------------------------|
|-----------------------------------|
|-----------------------------------| x4
|-----------------------------------|
|--------12-12-----13-13-----13-13--|
|--0-0-0-------0-0-------0-0--------|


Ending:
Guitar 1 (Heavy Distortion)
|----------------------------------------|
|----------------------------------------|
|----------------------------------------|
|--0-0-0-7--7--0-0-8--8--0-0-8--8--0~~---|
|--0-0-0-7--7--0-0-8--8--0-0-8--8--0~~---|
|--0-0-0-7--7--0-0-8--8--0-0-8--8--0~~---|

Guitar 2 (Heavy Distortion)
|----------------------------------------|
|----------------------------------------|
|----------------------------------------|
|-----------------------------------0~~--|
|--------12-12-----13-13-----13-13--0~~--|
|--0-0-0-------0-0-------0-0--------0~~--|


lyrics
------
Iíve told you this once before
You canít control me
If you try to take me down
Youíre gonna break

I feel your every
Nothing that youíre doing for me
Iím picking you outta me
You run away

I stand alone 
Inside 
I stand alone 

Youíre always hiding 
behind your so called Goddess 
So what?
You donít think that we can see your face?

Resurrected
Back before the final fallen 
Iíll never rest until 
I can make my own way 

Iím not afraid of fading 
I stand alone 
Feeling your sting down inside of me 
Iím not dying for it 
I stand alone 
Everything that I believe is fading 
I stand alone 
Inside 
I stand alone 

Now it's my time (Now it's my time)
Itís my time to dream (Itís my time to dream)
Dream of the sky (Dream of the sky)

Make me believe
That this place isnt plague By the poison in me 
Help me decide if my fire will burn out 
Before you can breathe 
Breathe into me 

I stand alone 
Inside 
I stand alone 
Feeling your sting down inside me 
Iím not dying for it 
I stand alone 
Everything that I believe is fading 
I stand alone 
Inside 
I stand alone 
Inside 
I stand alone 
Inside 
I stand alone 
Inside
Comments