Godsmack - I Stand Alone Chords & Tabs

 

I Stand Alone Chords & Tabs

Godsmack Chords & Tabs

Version: 7 Type: Tab 0 ratings
1 star 2 stars 3 stars 4 stars 5 stars
comments

I Stand Alone Tab

   
Godsmack - I Stand Alone
Tuning - C-G-C-F-A-D
3-12-02

tabbed by Emilio (emiliograveran@hotmail.com)

this is the complete order of the rhythm part of the song. i couldn't tab out the second 
guitar part cause i'm not that good so enjoy this...it should be enough to play with your 
band if you choose to do so...the second guitar part is noticeable but not a huge part in 
it...

Intro
|-------------------------------------|
|-------------------------------------|
|-------------------------------------|
|-------------------------------------| x7
|---------12-12-----13-13-----13-13---|
|---0-0-0-------0-0-------0-0---------|

|-------------------------------------|
|-------------------------------------|
|-------------------------------------|
|-------------------------------------| x1
|---------12-12-----13-13-----13\\----|
|---0-0-0-------0-0-------0-0---------|


Verse 1
|---------------------------------------------------------------------------------------|
|---------------------------------------------------------------------------------------|
|---------------------------------------------------------------------------------------|
|-0-0-xx-0-0-xx-6-6-6--0-0-xx-0-0-xx-6\3/5-5--0-0-xx-0-0-xx-6-6-6--0-0-xx-0-0-xx--xx-x--|
|-0-0-xx-0-0-xx-6-6-6--0-0-xx-0-0-xx-6\3/5-5--0-0-xx-0-0-xx-6-6-6--0-0-xx-0-0-xx--xx-x--|
|-0-0-xx-0-0-xx-6-6-6--0-0-xx-0-0-xx-6\3/5-5--0-0-xx-0-0-xx-6-6-6--0-0-xx-0-0-xx--xx-x--|

|------------------------------------------------------------------------|
|------------------------------------------------------------------------|
|------------------------------------------------------------------------|
|-0-0-xx-0-0-xx-6-6-6--0-0-xx-0-0-xx-6\3/5-5--0-0-xx-0-0-xx-6-6-6--6~~---|
|-0-0-xx-0-0-xx-6-6-6--0-0-xx-0-0-xx-6\3/5-5--0-0-xx-0-0-xx-6-6-6--6~~---|
|-0-0-xx-0-0-xx-6-6-6--0-0-xx-0-0-xx-6\3/5-5--0-0-xx-0-0-xx-6-6-6--6~~---|

Chorus
|-------------------------------------|
|-------------------------------------|
|-------------------------------------|
|-------------------------------------| x3
|---------12-12-----13-13-----13-13---|
|---0-0-0-------0-0-------0-0---------|

|-------------------------------------|
|-------------------------------------|
|-------------------------------------|
|-------------------------------------| x1
|---------12-12-----13-13-----13//----|
|---0-0-0-------0-0-------0-0---------|


Verse 2
|---------------------------------------------------------------------------------------|
|---------------------------------------------------------------------------------------|
|---------------------------------------------------------------------------------------|
|-0-0-xx-0-0-xx-6-6-6--0-0-xx-0-0-xx-6\3/5-5--0-0-xx-0-0-xx-6-6-6--0-0-xx-0-0-xx--xx-x--|
|-0-0-xx-0-0-xx-6-6-6--0-0-xx-0-0-xx-6\3/5-5--0-0-xx-0-0-xx-6-6-6--0-0-xx-0-0-xx--xx-x--|
|-0-0-xx-0-0-xx-6-6-6--0-0-xx-0-0-xx-6\3/5-5--0-0-xx-0-0-xx-6-6-6--0-0-xx-0-0-xx--xx-x--|

|---------------------------------------------------------------------------------------|
|---------------------------------------------------------------------------------------|
|---------------------------------------------------------------------------------------|
|-0-0-xx-0-0-xx-6-6-6--0-0-xx-0-0-xx-6\3/5-5--0-0-xx-0-0-xx-6-6-6--0-0-xx-0-0-xx-6\3/5-5|
|-0-0-xx-0-0-xx-6-6-6--0-0-xx-0-0-xx-6\3/5-5--0-0-xx-0-0-xx-6-6-6--0-0-xx-0-0-xx-6\3/5-5|
|-0-0-xx-0-0-xx-6-6-6--0-0-xx-0-0-xx-6\3/5-5--0-0-xx-0-0-xx-6-6-6--0-0-xx-0-0-xx-6\3/5-5|

Pre-Chorus
|-----------------------------------------|
|-----------------------------------------|
|----------------------------10-----------|
|---5--5--5--5--5-5/8--8--8--10--0--1-1---|
|---5--5--5--5--5-5/8--8--8--8---0--1-1---|
|---5--5--5--5--5-5/8--8--8--8---0--1-1---|

Chorus
|-------------------------------------|
|-------------------------------------|
|-------------------------------------|
|-------------------------------------| x1
|---------12-12-----13-13-----13-13---|
|---0-0-0-------0-0-------0-0---------|

|-------------------------------------|
|-------------------------------------|
|-------------------------------------|
|-------------------------------------| x1
|---------12-12-----13-13-----13//----|
|---0-0-0-------0-0-------0-0---------|

|----------------------------------------|
|----------------------------------------|
|----------------------------------------|
|---5--5--5--5--5-5/8--8--8--8--8--8-8---|
|---5--5--5--5--5-5/8--8--8--8--8--8-8---|
|---5--5--5--5--5-5/8--8--8--8--8--8-8---|
[ Tab from: http://www.guitartabs.cc/tabs/g/godsmack/i_stand_alone_tab_ver_7.html ]
|-------------------------------------|
|-------------------------------------|
|-------------------------------------|
|-------------------------------------| x1
|---------12-12-----13-13-----13-13---|
|---0-0-0-------0-0-------0-0---------|

|-------------------------------------|
|-------------------------------------|
|-------------------------------------|
|-------------------------------------| x1
|---------12-12-----13-13-----13//----|
|---0-0-0-------0-0-------0-0---------|

|---------------------------------------|
|---------------------------------------|
|---------------------------------------|
|---5--5--5--5--5-5/8--8--8--8--8--1-1--|
|---5--5--5--5--5-5/8--8--8--8--8--1-1--|
|---5--5--5--5--5-5/8--8--8--8--8--1-1--|

|-------------------------------------|
|-------------------------------------|
|-------------------------------------|
|----------0--0------0--0------0--0---| x3
|---------12-12-----13-13-----13-13---|
|---0-0-0-------0-0-------0-0---------|

|------------------------------------------|
|------------------------------------------|
|------------------------------------------|
|----------0--0------0--0------0--0---0~~--|
|---------12-12-----13-13-----13-13---0~~--|
|---0-0-0-------0-0-------0-0---------0~~--|

Bridge
|------------------------------------------------|
|------------------------------------------------|
|------------------------------------------------|
|-------5-----5--2/5-5-5--2/3-3-3--0----0-----0--| x1
|-----3-----3----2/5-5-5--2/3-3-3--0--0-----0----|
|---3-----3------2/5-5-5--2/3-3-3--0------0------|
               

|-----------------------------------------------|
|-----------------------------------------------|
|-----------------------------------------------|
|-------5-----5--2/5-5-5--2/3-3-3------0-----0--| x1
|-----3-----3----2/5-5-5--2/3-3-3----0-----0----|
|---3-----3------2/5-5-5--2/3-3-3--0-----0------|
                 (2nd gtr - quiet)

|------------------------------------------------|
|------------------------------------------------|
|------------------------------------------------|
|-------5-----5--2/5-5-5--2/3-3-3--0----0-----0--| x1
|-----3-----3----2/5-5-5--2/3-3-3--0--0-----0----|
|---3-----3------2/5-5-5--2/3-3-3--0------0------|
            

|-----------------------------------|
|-----------------------------------|
|-----------------------------------|
|-------5-----5--2/5-5-5--2/3-3-3---| x1 then next part
|-----3-----3----2/5-5-5--2/3-3-3---|
|---3-----3------2/5-5-5--2/3-3-3---|

|------------------------------------------------------------------------|
|------------------------------------------------------------------------|
|------------------------------------------------------------------------|
|-0-0-xx-0-0-xx-6-6-6--0-0-xx-0-0-xx-6\3/5-5--0-0-xx-0-0-xx-6-6-6--6~~---|
|-0-0-xx-0-0-xx-6-6-6--0-0-xx-0-0-xx-6\3/5-5--0-0-xx-0-0-xx-6-6-6--6~~---|
|-0-0-xx-0-0-xx-6-6-6--0-0-xx-0-0-xx-6\3/5-5--0-0-xx-0-0-xx-6-6-6--6~~---|

Chorus
|-------------------------------------|
|-------------------------------------|
|-------------------------------------|
|-------------------------------------| x3
|---------12-12-----13-13-----13-13---|
|---0-0-0-------0-0-------0-0---------|

|-------------------------------------|
|-------------------------------------|
|-------------------------------------|
|-------------------------------------| x1
|---------12-12-----13-13-----13//----|
|---0-0-0-------0-0-------0-0---------|

|----------------------------------------|
|----------------------------------------|
|----------------------------------------|
|---5--5--5--5--5-5/8--8--8--8--8--8-8---|
|---5--5--5--5--5-5/8--8--8--8--8--8-8---|
|---5--5--5--5--5-5/8--8--8--8--8--8-8---|

|-------------------------------------|
|-------------------------------------|
|-------------------------------------|
|-------------------------------------| x1
|---------12-12-----13-13-----13-13---|
|---0-0-0-------0-0-------0-0---------|

|-------------------------------------|
|-------------------------------------|
|-------------------------------------|
|-------------------------------------| x1
|---------12-12-----13-13-----13//----|
|---0-0-0-------0-0-------0-0---------|

|---------------------------------------|
|---------------------------------------|
|---------------------------------------|
|---5--5--5--5--5-5/8--8--8--8--8--1-1--|
|---5--5--5--5--5-5/8--8--8--8--8--1-1--|
|---5--5--5--5--5-5/8--8--8--8--8--1-1--|

or

|-------------------------------------|
|-------------------------------------|
|-------------------------------------|
|----------0--0------0--0------0--0---| x4
|---------12-12-----13-13-----13-13---|
|---0-0-0-------0-0-------0-0---------|

|-------------------------------------|
|-------------------------------------|
|-------------------------------------|
|---0-0-0-7-7--0-0-8-8--0-0-8-8-------| x4
|---0-0-0-7-7--0-0-8-8--0-0-8-8-------|
|---0-0-0-7-7--0-0-8-8--0-0-8-8-------|
Comments