Godsmack - I Stand Alone Chords & Tabs

 

I Stand Alone Chords & Tabs

Godsmack Chords & Tabs

Version: 1 Type: Tab 0 ratings
1 star 2 stars 3 stars 4 stars 5 stars
comments

I Stand Alone Tab

Song:I Stand Alone
Artist:Godsmack
album:Scorpion King Sound track (maybe Godsmacks next cd)
Tabbed By:Robert Tyler   DrowningRedneck@aol.com

Tuning:CGCFAD

Intro---Chorus

D----------------------------------------------------------------------------------|
A----------------------------------------------------------------------------------|
F----------------------------------------------------------------------------------|
C----------------------------------------------------------------------------------|
G-----------11-11---------12-12--------12-12-----------------------------------|
C---0-0-0----------0-0-0----------0-0-------------------------------------------|

Verse
[ Tab from: http://www.guitartabs.cc/tabs/g/godsmack/i_stand_alone_tab.html ]
D----------------------------------------------------------------------------------|
A----------------------------------------------------------------------------------|
F----------------------------------------------------------------------------------|
C---0-X-X-0-3/1-1/3-------------------------------------------------------------|
G---0-X-X-0-3/1-1/3-------------------------------------------------------------|
C---0-X-X-0-3/1-1/3-------------------------------------------------------------|


I DONT KNOW ABOUT THE SOLO BUT I KNOW TONY USES A VOICE
MODULATOR I WILL WORK ON THE SOLO.THIS IS A EASY SONG THAT
KICKS,TRY THIS TAB AND MAKE ADJUSTMENTS IF NEEDED I TABBED 
THIS OF THE RADIO.
Comments