Godsmack - I Fucking Hate You Chords & Tabs

 

I Fucking Hate You Chords & Tabs

Godsmack Chords & Tabs

Version: 5 Type: Tab 0 ratings
1 star 2 stars 3 stars 4 stars 5 stars
comments

I Fucking Hate You Tab

   
Band- Godsmack
Song- I Fucking Hate You
Album- Faceless

   D5                   F5                   G5                   Ab5
      0 0 x x x x          3 3 x x x x          5 5 x x x x          6 6 x x x x

         N.C.              D5(type 2)             Absus2
      0 0 0 0 0 0          0 0 0 2 x x          6 6 8 8 x x

Gtr I (C G C F A D) - 'Tony Rombola'

 Intro
  Q=96
  D5  N.C.                              D5  N.C.
 4/4
  Gtr I
  E e S  S  S S  S  S S  S  S S  S  S   E e S  S  S S  S  S S  S  S S  S  S
|-------------------------------------|--------------------------------------|
|-------------------------------------|--------------------------------------|
|-------------------------------------|--------------------------------------|
|-------------------------------------|--------------------------------------|
|-0-0---------------------------------|-0-0----------------------------------|
|-0-0-0-18-18-0-18-18-0-18-18-0-18-18-|-0-0-0-18-18-0-18-18-0-18-18-0-18-18--|


  D5    N.C.                              D5  N.C.
  S S e S  S  S S  S  S S  S  S S  S  S   E e S  S  S S  S  S S  S  S S  S  S
|---------------------------------------|--------------------------------------|
|---------------------------------------|--------------------------------------|
|---------------------------------------|--------------------------------------|
|---------------------------------------|--------------------------------------|
|-0-0-0---------------------------------|-0-0----------------------------------|
|-0-0-0-0-18-18-0-18-18-0-18-18-0-18-18-|-0-0-0-18-18-0-18-18-0-18-18-0-18-18--|


  D5    F5  D5G5  D5Ab5 D5G5    D5    F5  D5G5  D5Ab5 D5G5
  E e S S S S S S S S S S S S   E e S S S S S S S S S S S S
|-----------------------------|-----------------------------|
|-----------------------------|-----------------------------|
|-----------------------------|-----------------------------|
|-----------------------------|-----------------------------|
|-0-0-0-3-3-0-5-5-0-6-6-0-5-5-|-0-0-0-3-3-0-5-5-0-6-6-0-5-5-|
|-0-0-0-3-3-0-5-5-0-6-6-0-5-5-|-0-0-0-3-3-0-5-5-0-6-6-0-5-5-|


  D5      F5  D5G5  D5Ab5 D5G5    D5  N.C.
  S S e S S S S S S S S S S S S   E e S  S  S S  S  S S  S  S S  S  S
|-------------------------------|--------------------------------------|
|-------------------------------|--------------------------------------|
|-------------------------------|--------------------------------------|
|-------------------------------|--------------------------------------|
|-0-0-0-0-3-3-0-5-5-0-6-6-0-5-5-|-0-0----------------------------------|
|-0-0-0-0-3-3-0-5-5-0-6-6-0-5-5-|-0-0-0-18-18-0-18-18-0-18-18-0-18-18--|


  D5    F5  D5G5  D5Ab5 D5G5    D5    F5  D5G5  D5Ab5 D5G5
  E e S S S S S S S S S S S S   E e S S S S S S S S S S S S
|-----------------------------|-----------------------------|
|-----------------------------|-----------------------------|
|-----------------------------|-----------------------------|
|-----------------------------|-----------------------------|
|-0-0-0-3-3-0-5-5-0-6-6-0-5-5-|-0-0-0-3-3-0-5-5-0-6-6-0-5-5-|
|-0-0-0-3-3-0-5-5-0-6-6-0-5-5-|-0-0-0-3-3-0-5-5-0-6-6-0-5-5-|


  D5      F5  D5G5  D5Ab5 D5G5    D5    F5  D5G5  D5Ab5 D5G5
                                      PM--------------------|
  S S e S S S S S S S S S S S S   E e S S S S S S S S S S S S
|-------------------------------|------------------------------||
|-------------------------------|------------------------------||
|-------------------------------|------------------------------||
|-------------------------------|------------------------------||
|-0-0-0-0-3-3-0-5-5-0-6-6-0-5-5-|-0-0-0-3-3-0-5-5-0-6-6-0-5-5--||
|-0-0-0-0-3-3-0-5-5-0-6-6-0-5-5-|-0-0-0-3-3-0-5-5-0-6-6-0-5-5--||


   Verse
    N.C.
    E E S  S  S S  S  S S  S  S S  S  S
||--------------------------------------|
||o-------------------------------------|
||--------------------------------------|
||--------------------------------------|
||o-------------------------------------|
||--0-0-0-18-18-0-18-18-0-18-18-0-18-18-|


  E S S S  S  S S  S  S S  S  S S  S  S
|---------------------------------------|
|---------------------------------------|
|---------------------------------------|
|---------------------------------------|
|---------------------------------------|
|-0-0-0-0-18-18-0-18-18-0-18-18-0-18-18-|


  E S S S  S  S S  S  S S  S  S S  S  S
|---------------------------------------|
|---------------------------------------|
|---------------------------------------|
|---------------------------------------|
|---------------------------------------|
|-0-0-0-0-18-18-0-18-18-0-18-18-0-18-18-|


  E S S S  S  S S  S  S S  S  S S  S  S
|---------------------------------------|
|---------------------------------------|
|---------------------------------------|
|---------------------------------------|
|---------------------------------------|
|-0-0-0-0-18-18-0-18-18-0-18-18-0-18-18-|


  E E S  S  S S  S  S S  S  S S  S  S   E S S S  S  S S  S  S S  S  S S  S  S
|-------------------------------------|----------------------------------------|
|-------------------------------------|----------------------------------------|
|-------------------------------------|----------------------------------------|
|-------------------------------------|----------------------------------------|
|-------------------------------------|----------------------------------------|
|-0-0-0-18-18-0-18-18-0-18-18-0-18-18-|-0-0-0-0-18-18-0-18-18-0-18-18-0-18-18--|


  E S S S  S  S S  S  S S  S  S S  S  S
|---------------------------------------|
|---------------------------------------|
|---------------------------------------|
|---------------------------------------|
|---------------------------------------|
|-0-0-0-0-18-18-0-18-18-0-18-18-0-18-18-|


  E S S S  S  S S  S  S S  S  S S  S  S
|---------------------------------------||
|---------------------------------------||
|---------------------------------------||
|---------------------------------------||
|---------------------------------------||
|-0-0-0-0-18-18-0-18-18-0-18-18-0-18-18-||


 Pre Chorus
  $
  D5                      Absus2
  E. E S E. E S S S S S   E. E S E. E S S S S S
|-----------------------|-----------------------|
|-----------------------|-----------------------|
|-2--2-2-2--2-2-2-2-2-2-|-8--8-8-8--8-8-8-8-8-8-|
|-0--0-0-0--0-0-0-0-0-0-|-8--8-8-8--8-8-8-8-8-8-|
|-0--0-0-0--0-0-0-0-0-0-|-6--6-6-6--6-6-6-6-6-6-|
|-0--0-0-0--0-0-0-0-0-0-|-6--6-6-6--6-6-6-6-6-6-|


  D5                        Ab5
                          PM  PM  PM      PM
  E. E S E. E S S S S S   S E S E S S +S  S S S S S S S
|-----------------------|-------------------------------|
|-----------------------|-------------------------------|
|-2--2-2-2--2-2-2-2-2-2-|-------------------------------|
|-0--0-0-0--0-0-0-0-0-0-|---6---6---6-(6)---6-6-6-6-6-6-|
|-0--0-0-0--0-0-0-0-0-0-|---6---6---6-(6)---6-6-6-6-6-6-|
|-0--0-0-0--0-0-0-0-0-0-|-0-6-0-6-0-6-(6)-0-6-6-6-6-6-6-|


  D5                      Absus2
  E. E S E. E S S S S S   E. E S E. E S S S S S
|-----------------------|-----------------------|
|-----------------------|-----------------------|
|-2--2-2-2--2-2-2-2-2-2-|-8--8-8-8--8-8-8-8-8-8-|
|-0--0-0-0--0-0-0-0-0-0-|-8--8-8-8--8-8-8-8-8-8-|
|-0--0-0-0--0-0-0-0-0-0-|-6--6-6-6--6-6-6-6-6-6-|
|-0--0-0-0--0-0-0-0-0-0-|-6--6-6-6--6-6-6-6-6-6-|


  D5                        Ab5
                          PM  PM  PM      PM
  E. E S E. E S S S S S   S E S E S S +S  S S S S S S S
|-----------------------|-------------------------------||
|-----------------------|-------------------------------||
|-2--2-2-2--2-2-2-2-2-2-|-------------------------------||
|-0--0-0-0--0-0-0-0-0-0-|---6---6---6-(6)---6-6-6-6-6-6-||
|-0--0-0-0--0-0-0-0-0-0-|---6---6---6-(6)---6-6-6-6-6-6-||
|-0--0-0-0--0-0-0-0-0-0-|-0-6-0-6-0-6-(6)-0-6-6-6-6-6-6-||

[ Tab from: http://www.guitartabs.cc/tabs/g/godsmack/i_fucking_hate_you_tab_ver_5.html ]
 Chorus
  D5   F5  D5G5  D5Ab5 D5G5    D5    F5  D5G5  D5Ab5 D5G5
  q  S S S S S S S S S S S S   E e S S S S S S S S S S S S
|----------------------------|-----------------------------|
|----------------------------|-----------------------------|
|----------------------------|-----------------------------|
|----------------------------|-----------------------------|
|-0--0-3-3-0-5-5-0-6-6-0-5-5-|-0-0-0-3-3-0-5-5-0-6-6-0-5-5-|
|-0--0-3-3-0-5-5-0-6-6-0-5-5-|-0-0-0-3-3-0-5-5-0-6-6-0-5-5-|


                              1.
  D5   F5  D5G5  D5Ab5 D5G5    D5      F5  D5G5  D5Ab5 D5G5
                                     PM--------------------|
  q  S S S S S S S S S S S S   S S e S S S S S S S S S S S S
|----------------------------|---------------------------------||
|----------------------------|--------------------------------o||
|----------------------------|---------------------------------||
|----------------------------|---------------------------------||
|-0--0-3-3-0-5-5-0-6-6-0-5-5-|-0-0-0-0-3-3-0-5-5-0-6-6-0-5-5--o||
|-0--0-3-3-0-5-5-0-6-6-0-5-5-|-0-0-0-0-3-3-0-5-5-0-6-6-0-5-5---||


  2.,3.
  D5    N.C.                              D5   F5  D5G5  D5Ab5 D5G5
  S S e S  S  S S  S  S S  S  S S  S  S   q  S S S S S S S S S S S S
|---------------------------------------|-----------------------------|
|---------------------------------------|-----------------------------|
|---------------------------------------|-----------------------------|
|---------------------------------------|-----------------------------|
|-0-0-0---------------------------------|-0--0-3-3-0-5-5-0-6-6-0-5-5--|
|-0-0-0-0-18-18-0-18-18-0-18-18-0-18-18-|-0--0-3-3-0-5-5-0-6-6-0-5-5--|


  D5    F5  D5G5  D5Ab5 D5G5    D5   F5  D5G5  D5Ab5 D5G5
  E e S S S S S S S S S S S S   q  S S S S S S S S S S S S
|-----------------------------|----------------------------|
|-----------------------------|----------------------------|
|-----------------------------|----------------------------|
|-----------------------------|----------------------------|
|-0-0-0-3-3-0-5-5-0-6-6-0-5-5-|-0--0-3-3-0-5-5-0-6-6-0-5-5-|
|-0-0-0-3-3-0-5-5-0-6-6-0-5-5-|-0--0-3-3-0-5-5-0-6-6-0-5-5-|


                                  Interlude
                       To Coda
  D5      F5  D5G5  D5Ab5 D5G5     D5
  S S e S S S S S S S S S S S S    W          +W
|-------------------------------||----------|--------|
|-------------------------------||----------|--------|
|-------------------------------||----------|--------|
|-------------------------------||----------|--------|
|-0-0-0-0-3-3-0-5-5-0-6-6-0-5-5-||-0--------|-(0)----|
|-0-0-0-0-3-3-0-5-5-0-6-6-0-5-5-||-0--------|-(0)----|


                              N.C.
  +W           +W             E S S S  S  S S  S  S S  S  S S  S  S
|------------|------------||-----------------------------------------|
|------------|------------||o----------------------------------------|
|------------|------------||-----------------------------------------|
|------------|------------||-----------------------------------------|
|-(0)--------|-(0)--------||o----------------------------------------|
|-(0)--------|-(0)--------||--0-0-0-0-18-18-0-18-18-0-18-18-0-18-18--|


  E S S S  S  S S  S  S S  S  S S  S  S
|---------------------------------------|
|---------------------------------------|
|---------------------------------------|
|---------------------------------------|
|---------------------------------------|
|-0-0-0-0-18-18-0-18-18-0-18-18-0-18-18-|


  E S S S  S  S S  S  S S  S  S S  S  S
|---------------------------------------|
|---------------------------------------|
|---------------------------------------|
|---------------------------------------|
|---------------------------------------|
|-0-0-0-0-18-18-0-18-18-0-18-18-0-18-18-|


  1.
  E S S S  S  S S  S  S S  S  S S  S  S
|----------------------------------------||
|---------------------------------------o||
|----------------------------------------||
|----------------------------------------||
|---------------------------------------o||
|-0-0-0-0-18-18-0-18-18-0-18-18-0-18-18--||


 2.
                         D.S. al Coda
  E S S S  S  S S  S  S S  S  S S  S  S
|---------------------------------------||
|---------------------------------------||
|---------------------------------------||
|---------------------------------------||
|---------------------------------------||
|-0-0-0-0-18-18-0-18-18-0-18-18-0-18-18-||


 Outro
  &
  D5   F5  D5G5  D5Ab5 D5G5    D5    F5  D5G5  D5Ab5 D5G5
  q  S S S S S S S S S S S S   E e S S S S S S S S S S S S
|----------------------------|-----------------------------|
|----------------------------|-----------------------------|
|----------------------------|-----------------------------|
|----------------------------|-----------------------------|
|-0--0-3-3-0-5-5-0-6-6-0-5-5-|-0-0-0-3-3-0-5-5-0-6-6-0-5-5-|
|-0--0-3-3-0-5-5-0-6-6-0-5-5-|-0-0-0-3-3-0-5-5-0-6-6-0-5-5-|


  D5      F5  D5G5  D5Ab5 D5G5    D5    N.C.
  S S e S S S S S S S S S S S S   S S e S  S  S  S  S  S  S  S  S  S  S  S
|-------------------------------|------------------------------------------|
|-------------------------------|------------------------------------------|
|-------------------------------|------------------------------------------|
|-------------------------------|------------------------------------------|
|-0-0-0-0-3-3-0-5-5-0-6-6-0-5-5-|-0-0-0------------------------------------|
|-0-0-0-0-3-3-0-5-5-0-6-6-0-5-5-|-0-0-0-0-18-18-18-18-18-18-18-18-18-18-18-|


  D5    F5  D5G5  D5Ab5 D5G5    D5    F5  D5G5  D5Ab5 D5G5
  E e S S S S S S S S S S S S   E e S S S S S S S S S S S S
|-----------------------------|-----------------------------|
|-----------------------------|-----------------------------|
|-----------------------------|-----------------------------|
|-----------------------------|-----------------------------|
|-0-0-0-3-3-0-5-5-0-6-6-0-5-5-|-0-0-0-3-3-0-5-5-0-6-6-0-5-5-|
|-0-0-0-3-3-0-5-5-0-6-6-0-5-5-|-0-0-0-3-3-0-5-5-0-6-6-0-5-5-|


  D5      F5  D5G5  D5Ab5 D5G5
  S S e S S S S S S S S S S S S
|-------------------------------|
|-------------------------------|
|-------------------------------|
|-------------------------------|
|-0-0-0-0-3-3-0-5-5-0-6-6-0-5-5-|
|-0-0-0-0-3-3-0-5-5-0-6-6-0-5-5-|


  D5    N.C.
  S S e S  S  S S  S  S S  S  S S  S  S   Wx2
|---------------------------------------|--------*|
|---------------------------------------|--------*|
|---------------------------------------|--------*|
|---------------------------------------|--------*|
|-0-0-0---------------------------------|--------*|
|-0-0-0-0-18-18-0-18-18-0-18-18-0-18-18-|--------*|


Duration Legend
---------------
W - whole; H - half; Q - quarter; E - 8th; S - 16th; T - 32nd; X - 64th; a - acciaccatura
+ - note tied to previous; . - note dotted; .. - note double dotted
Uncapitalized letters represent notes that are staccato (1/2 duration)
Irregular groupings are notated above the duration line
Duration letters will always appear directly above the note/fret number it represents the
duration for.  Duration letters with no fret number below them represent rests.  Multi-
bar rests are notated in the form Wxn, where n is the number of bars to rest for.  Low
melody durations appear below the staff

Tablature Legend
----------------
 h   - hammer-on
 p   - pull-off
 b   - bend
 pb  - pre-bend
 r   - bend release (if no number after the r, then release immediately)
 /\  - slide into or out of (from/to "nowhere")
 s   - legato slide
 S   - shift slide
  - natural harmonic
[n]  - artificial harmonic
n(n) - tapped harmonic
 ~   - vibrato
 tr  - trill
 T   - tap
 TP  - trem. picking
 PM  - palm muting
\n/  - tremolo bar dip; n = amount to dip
 \n  - tremolo bar down
 n/  - tremolo bar up
/n\  - tremolo bar inverted dip
 =   - hold bend; also acts as connecting device for hammers/pulls
 <>  - volume swell (louder/softer)
 x   - on rhythm slash represents muted slash
 o   - on rhythm slash represents single note slash

Misc Legend
-----------
 |  - bar
||  - double bar
||o - repeat start
o|| - repeat end
*|  - double bar (ending)
 :  - bar (freetime)
 $  - Segno
 &  - Coda
Tempo markers -  = BPM(8/16=s8/s16), where s8 = swing 8ths, s16 = swing 16ths
Comments