Godsmack - I Fucking Hate You Chords & Tabs

 

I Fucking Hate You Chords & Tabs

Godsmack Chords & Tabs

Version: 2 Type: Tab 0 ratings
1 star 2 stars 3 stars 4 stars 5 stars
comments

I Fucking Hate You Tab

   
#----------------------------------PLEASE NOTE---------------------------------#
#This file is the author's own work and represents their interpretation of the #
#song. You may only use this file for private study, scholarship, or research. #
#------------------------------------------------------------------------------#

Title: 'I Fucking Hate You'
Artist: Godsmack
Tabbed By: StonedRocker
 My excuse if this tab sucks is that I did it in 
 5 minutes from memory at 1 in the morning. Hopefully 
 it wont be that bad :>
 

Standard Tuning (E A D G B E) - 'I Fucking Hate You'

[ Tab from: http://www.guitartabs.cc/tabs/g/godsmack/i_fucking_hate_you_tab_ver_2.html ]
  
  Intro/Verse 1
e|--------------------------------|
B|--------------------------------|
G|--------------------------------|
D|-9-9----------------------------|
A|-9-9-799799799797---------------|
E|-7-7----------------------------|
         palm mute 

  Verse 2
e|-----------------------|----------------------------------------|
B|-----------------------|----------------------------------------|
G|-----------------------|----------------------------------------|
D|-9-9-------------------|---------9-9----------------------------|
A|-9-9-555/777/999\770---|---------9-9-566566566565---------------|
E|-7-7-------------------|---------7-7----------------------------|
         x3                        (play on fourth time)   

  Chorus
e|------------------|
B|------------------|
G|---------4---5----|
D|-9---3---4---5----|
A|-9---3---2---3----|
E|-7---1------------|
  hold each chord
Comments