Godsmack - I Am Chords & Tabs

 

I Am Chords & Tabs

Godsmack Chords & Tabs

Version: 3 Type: Tab 0 ratings
1 star 2 stars 3 stars 4 stars 5 stars
comments

I Am Tab

   
-------------------------------------------------------------------------------
			     I Am - Godsmack
-------------------------------------------------------------------------------
Tabbed by:  Unregistered
Email:

Tuning: C#, G#, C#, F#, A#, D#

Intro:
d#|-----------------------------------------------------|
A#|-----------------------------------------------------| Repeat 3 
F#|-------------------9~--------------------------------| more times
C#|-0-0-0-0-0--0-0-0-----0-0-0-0-0--0-0-0---9\6---------|
G#|-0-0-0-0-0--0-0-0-----0-0-0-0-0--0-0-0---7\4---------|
C#|-0-0-0-0-0--0-0-0-----0-0-0-0-0--0-0-0---------------|
    x x x x x  x x x     x x x x x  x x x
Verse 1:
d#|-----------------------------------------------------|
A#|-----------------------------------------------------| Repeat 3
F#|-------------------9--------------------9\6----------| more times
C#|-0-0-0-0-0--0-0-0--9--0-0-0-0-0--0-0-0--9\6----------|
G#|-0-0-0-0-0--0-0-0-----0-0-0-0-0--0-0-0---------------|
C#|-0-0-0-0-0--0-0-0-----0-0-0-0-0--0-0-0---------------|
    x x x x x  x x x     x x x x x  x x x
Prechorus:
d#|-----------------------------------------------------|
A#|-----------------------------------------------------| Repeat 3
F#|-----------------------------------------------------| more times
C#|-6-6-6-6-6--6-6-6-------7-7-7-7----------------------|
G#|-6-6-6-6-6--6-6-6--0-0--7-7-7-7----------------------|
C#|-6-6-6-6-6--6-6-6--0-0--7-7-7-7----------------------|
[ Tab from: http://www.guitartabs.cc/tabs/g/godsmack/i_am_tab_ver_3.html ]
Chorus:
d#|-----------------------------------------------------|
A#|-----------------------------------------------------| Repeat 3
F#|---4h5p4---4h5p4---4h5p4---4h5p4---------------------| more times
C#|-0-------0-------0-------0---------------------------|
G#|-----------------------------------------------------|
C#|-----------------------------------------------------|

Interlude part 1:
d#|-----------------------------------------------------|
A#|-----------------------------------------------------| Repeat 2
F#|-----------------------------------------------------| more times
C#|-----------------------------------------------------|
G#|0-0-0-0-400-0-0-0--400-0-0-400-6---------------------|
C#|0-0-0-0-400-0-0--0-400-0-0-400-6---------------------|
   x x x x xxx x x x x xxx x x
Interlude part 2 (Just after Interlude part 1):
d#|-----------------------------------------------------|
A#|-----------------------------------------------------|
F#|-----------------------------------------------------|
C#|-----------------------------------------------------|
G#|0-0-0-0-400-0-0-0-400-13-13-13-13-13-13-13-----------|
C#|0-0-0-0-400-0-0-0-400-13-13-13-13-13-13-13-----------|
   x x x x xxx x x x xxx  x  x  x  x  x  x  x

Interlude 2 follows just after interlude 1, I just couldnt fit it on 1 line
The outro is the same as the interlude

The order of the song is:
Intro  played 4 times
Verse  played 4 times
Prechorus  played 4 times
Chorus  played 4 times
Intro  played 2 times   
Verse  played 4 times
Prechorus  played 4 times
Chorus  played 8 times
Interlude played about 4 (listen to song to get)
Chorus  played 8 times
Outro  played 1 time

Sorry if some parts dont sound just right.  This is my first full song tab.

| /  slide up
| \  slide down
| h  hammer-on
| p  pull-off
| ~  vibrato
| +  harmonic
| x  Mute note
============================================================================
Comments