Godsmack - I Am Chords & Tabs

 

I Am Chords & Tabs

Godsmack Chords & Tabs

Version: 1 Type: Tab 0 ratings
1 star 2 stars 3 stars 4 stars 5 stars
comments

I Am Tab

   
-----------------------------------------------------------------------------
			     I AM - Godsmack
-----------------------------------------------------------------------------

Tabbed by: Tripps
Email: ihumandiseasei@aol.com

Tuning: C,G,C,F,A,d

Alright everyone. This is a great song, my favorite off of Faceless. Once I learn the
last few songs I need to off of the album, I'm gonna attempt to tab it all out for you
all. This one sounds pretty dead on. Listen to the song for exact timing and all. Enjoy!


Intro: (Play 4 times)
e|--------------------------------------------------------------------------|
B|--------------------^-----------------------------------------------------|
G|--------------------8----------------------8----5-------------------------|
D|--------------------x----------------------x----x-------------------------|
A|--------------------6----------------------6----3-------------------------|
E|--0-0-0-0-0--0-0-0-------0-0-0-0-0--0-0-0---------------------------------|
PM ------------------|  PM------------------|

Verse: (Play 4 times)
"I am your spoken truth...."
"I am your piece of mind..."
e|--------------------------------------------------------------------------|
B|--------------------------------------------------------------------------|
G|--------------------------------------------------------------------------|
D|--------------------------------------------------------------------------|
A|--------------------13---------------------13----10-----------------------|
E|--0-0-0-0-0--0-0-0--13---0-0-0-0-0--0-0-0--13----10-----------------------|
PM ------------------|  PM------------------|

Pre-Chorus:               
"Just consider me your friend..."
e|--------------------------------------------------------------------------|
B|--------------------------------------------------------------------------|
G|--------------------------------------------------------------------------|
D|--------------------------------------------------------------------------|
A|--5-5-5-5-5----5-5-5-----6-6-6-6----5-5-5-5-5----5-5-5-----6-6-6-6--------|
E|--5-5-5-5-5----5-5-5-0-0-6-6-6-6----5-5-5-5-5----5-5-5-0-0-6-6-6-6--------|

e|--------------------------------------------------------------------------|
B|--------------------------------------------------------------------------|
G|--------------------------------------------------------------------------|
D|--------------------------------------------------------------------------|
A|--5-5-5-5-5----5-5-5-----6-6-6-6----5-5-5-5-5-5-5-5-5/8-8-8-8-8-8-8-------|
E|--5-5-5-5-5----5-5-5-0-0-6-6-6-6----5-5-5-5-5-5-5-5-5/8-8-8-8-8-8-8-------|

Chorus: Played 8 times. Listen to song for timing.
Gtr. 1
"This isn't the life for me..."
e|--------------------------------------------------------------------------|
B|--------------------------------------------------------------------------|
G|--------------------------------------------------------------------------|
D|--------------------------------------------------------------------------|
A|--0----8----13----0----8----13--------------------------------------------|
E|--0----8----13----0----8----13--------------------------------------------|

Gtr. 2
e|-0---------0---------0---------0---------0--------------------------------|
B|----2-3-2-----2-3-2-----2-3-2-----2-3-2-----------------------------------|
G|--------------------------------------------------------------------------|
D|--------------------------------------------------------------------------|
A|--------------------------------------------------------------------------|
E|--------------------------------------------------------------------------|
[ Tab from: http://www.guitartabs.cc/tabs/g/godsmack/i_am_tab.html ]
Gtr. 1
"Death will come...."
e|--------------------------------------------------------------------------|
B|--------------------------------------------------------------------------|
G|--------------------------------------------------------------------------|
D|--------------------------------------------------------------------------|
A|--1----10-----------------------------------------------------------------|
E|--1----10-----------------------------------------------------------------|

Bridge: (Play 2 times)
e|--------------------------------------------------------------------------|
B|--------------------------------------------------------------------------|
G|--------------------------------------------------------------------------|
D|--------------------------------------------------------------------------|
A|-----------------------------6-------------------------------6------------|
E|--0-0-0-0-3-0-0-0-0-0-3-0-0--6----0-0-0-0-3-0-0-0-0-0-3-0-0--6------------|
PM---------------------------|    PM-------------------------|

e|--------------------------------------------------------------------------|
B|--------------------------------------------------------------------------|
G|--------------------------------------------------------------------------|
D|--------------------------------------------------------------------------|
A|-----------------------------6-------------------------------6/8----------|
E|--0-0-0-0-3-0-0-0-0-0-3-0-0--6----0-0-0-0-3-0-0-0-0-0-3-0-0--6/8----------|
PM---------------------------|    PM-------------------------|

e|--------------------------------------------------------------------------|
B|--------------------------------------------------------------------------|
G|--------------------------------------------------------------------------|
D|--------------------------------------------------------------------------|
A|-----------------------------6-------------------------------13-13-13-13--|
E|--0-0-0-0-3-0-0-0-0-0-3-0-0--6----0-0-0-0-3-0-0-0-0-0-3-0-0--13-13-13-13--|
PM---------------------------|    PM-------------------------|

"Take me by my hand..."
e|--------------------------------------------------------------------------|
B|--------------------------------------------------------------------------|
G|--------------------------------------------------------------------------|
D|--------------------------------------------------------------------------|
A|-----------------------------6-------------------------------6/8----------|
E|--0-0-0-0-3-0-0-0-0-0-3-0-0--6----0-0-0-0-3-0-0-0-0-0-3-0-0--6/8----------|
PM---------------------------|    PM-------------------|

e|--------------------------------------------------------------------------|
B|--------------------------------------------------------------------------|
G|--------------------------------------------------------------------------|
D|--------------------------------------------------------------------------|
A|-----------------------------6---5---6---5---3---1---3--------------------|
E|--0-0-0-0-3-0-0-0-0-0-3-0-0--6---5---6---5---3---1---3--------------------|
PM---------------------------|    

Outro:
e|--------------------------------------------------------------------------|
B|--------------------------------------------------------------------------|
G|--------------------------------------------------------------------------|
D|--------------------------------------------------------------------------|
A|-----------------------------6--------------------------------------------|
E|--0-0-0-0-3-0-0-0-0-0-3-0-0--6--------------------------------------------|
PM---------------------------|    

e|--------------------------------------------------------------------------|
B|--------------------------------------------------------------------------|
G|--------------------------------------------------------------------------|
D|--------------------------------------------------------------------------|
A|----------------------13-13-13-13-13-13-13--------------------------------|
E|--0-0-0-0-3-0-0-0-0-0-13-13-13-13-13-13-13--------------------------------|
PM---------------------|    

| /  slide up
| \  slide down
| h  hammer-on
| p  pull-off
| ~  vibrato
| +  harmonic
| x  Mute note
| ^  Bend
| PM Palm Mute

Order:
Intro
Verse
Pre-Chorus
Chorus
Intro
Verse
Pre-Chorus
Chorus
Bridge
Chorus
Outro
=============================================================================
Comments