Godsmack - Greed Chords & Tabs

 

Greed Chords & Tabs

Godsmack Chords & Tabs

Version: 4 Type: Tab 0 ratings
1 star 2 stars 3 stars 4 stars 5 stars
comments

Greed Tab

   
Band- Godsmack
Song- Greed
Tuning- Drop D

Intro(palm-muted w/distortion) Repeat x4
D------------------------------------------------------------------|
A------------------------------------------------------------------|
F------------------------------------------------------------------|
C------------------------------------------------------------------|
G-0--3-0-0--3-0-0-0-0-0-3-0-0-5/6--0--3-0-0--3-0-0-0-0-0-3-0-0-5/6-|
C-0--3-0-0--3-0-0-0-0-0-3-0-0-5/6--0--3-0-0--3-0-0-0-0-0-3-0-0-5/6-|

At the 4th time repeat
D-----------------------------|
A-----------------------------|
F-----------------------------|
C-----------------------------|
G-0--3-0-0--3-0-0-0-0-0-3-0-0-|
C-0--3-0-0--3-0-0-0-0-0-3-0-0-|

For the verse, play the intro riffs

Chorus "Hard to find, how I feel..." Repeat as needed
D----------------------------------------------|
A----------------------------------------------|
F---5/7-7-7\5-5-5/8-8-8----5/7-7-7\5-5-5/8-8-8-|
C-0-5/7-7-7\5-5-5/8-8-8--0-5/7-7-7\5-5-5/8-8-8-|
G-0-3/5-5-5\3-3-3/6-6-6--0-3/5-5-5\3-3-3/6-6-6-|
C-0----------------------0---------------------|

"Especially when you're smothering me...."
D-----------|
A-----------|
F-5-5-5-5-8-|
C-5-5-5-5-8-|
G-3-3-3-3-6-|
C-----------|

Then back to the chorus riffs

"please someone help me..."(2nd chorus: "Ah, you greedy little baby!"
D-------------------|
A-------------------|
F-5-5-5-5-----------|
C-5-5-5-5-----------|
G-3-3-3-3-0-3-3-3-1-|
C---------0-3-3-3-1-|

For the short interlude before the second verse and the second verse, play the intro riffs
Then the chorus

Bridge(repeat x3)Echo: "Hard to find the time, to find the time..."
D---------------------|
A---------------------|
F---------------------|
C-0---------6-6-6-6-3-|
G-0---------6-6-6-6-3-|
C-0---------6-6-6-6-3-|
  ^Let ring
[ Tab from: http://www.guitartabs.cc/tabs/g/godsmack/greed_tab_ver_4.html ]
Just before the solo
D-----------|
A-----------|
F---------8-|
C-0-0-0-0-7-|
G-0-0-0-0-6-|
C-0-0-0-0---|
          ^Let ring. Where the singer goes: "Yea, yea, yea..."

For the solo, guitar 1 plays the intro riffs
Solo(guitar 2)w/distortion and wah
D-----------------------------------------------------------------|
A-10-10-x-x-10-10--10--------------------------10-----------------|
F-10-10-x-x-10-10--10--------------10----------10-----------14-14-|
C------------------^trem.pick---12---12-10-12------12-10-12-13-13-|
G-----------------------------------------------------------------|
C-----------------------------------------------------------------|

Solo(continued)
D-10^-10-10^-10----------------------------------13-15-15^-15^-12-15\8-|
A-13^-13-13^-13-10^-10^-10^-10-------------13-15-----------------------|
F---------------12^-12^-12^---13-(13)\0/14-----------------------------|
C----------------------------------------------------------------------|
G----------------------------------------------------------------------|
C----------------------------------------------------------------------|

Solo(continued straight from above)
D-----13-15-15^-13----|
A-/13--------------15-|
F---------------------|bend back and forth
C---------------------|
G---------------------|
C---------------------|

Then the chorus

Outro "greedy little baby..."
D---------------------------------------------------------------------------|
A---------------------------------------------------------------------------|
F-5-5-----------------------------------------------------------------------|
C-5-5-0-3-3-3-1-0--3-0-0--3-0-0-0-0-0-3-0-0-5/6-0--3-0-0--3-0-0-0-0-0-3-0-0-|
G-3-3-0-3-3-3-1-0--3-0-0--3-0-0-0-0-0-3-0-0-5/6-0--3-0-0--3-0-0-0-0-0-3-0-0-|
C-----0-3-3-3-1-0--3-0-0--3-0-0-0-0-0-3-0-0-5/6-0--3-0-0--3-0-0-0-0-0-3-0-0-|
                ^palm-mute from this part on

ENJOY!!!
Comments