Godsmack - Greed Chords & Tabs

 

Greed Chords & Tabs

Godsmack Chords & Tabs

Version: 3 Type: Tab 0 ratings
1 star 2 stars 3 stars 4 stars 5 stars
comments

Greed Tab

   
Godsmack
Greed

Intro And Verse:
D------------------------------------------------
A------------------------------------------------
F------------------------------------------------
C------------------------------------------------
G-0---3-0-0-0---3-000-0--0-0-3-0-0-0--0-0--5h6-6-
C-0---3-0-0-0---3-000-0--0-0-3-0-0-0--0-0--5h6-6-
pm..    ...       ...    ...   ... /\
                                   Stop here when going into
                                   first verse and chorus

Chorus
1
D-----------------------
A-----------------------
F-----------------------
C-0--7---7---5--8-8-8-8-
G-0--5-0-5-0-3--6-6-6-6-
C-0----0---0------------
3 times

2
D---------------
A---------------
F---------------
C-5--5--8-8-8-8-
G-3--3--6-6-6-6-
C---------------

Pre-solo
1
D---------------------------
A---------------------------
F-2-------------------------
C-0---------------6-6-6-6-3-
G-0---------------6-6-6-6-3-
C-0---------------6-6-6-6-3-
  ****************
*** = phaser or flanger(I prefer phaser), and let ring
[ Tab from: http://www.guitartabs.cc/tabs/g/godsmack/greed_tab_ver_3.html ]
2
D------------
A------------
F------------
C-0-0-0-0--8-
G-0-0-0-0--6-
C-0-0-0-0----
           *
* = use wah

Solo
1
D---------------------------------------------------------
A---------------------------------------------------------
F-10~~~~10~~~10~~~~~10~~~~~------------10h12b14b14b14~~~~-
C--------------------------12---10--12--------------------
G---------------------------------------------------------
C---------------------------------------------------------
w/ wah

2
D-10----10----10----10----10---------------------------
A-13b15-13b15-13b15-13b15-13b15-10----10----10----9~~~-
F-------------------------------12b14-12b14-12b14------
C------------------------------------------------------
G------------------------------------------------------
C------------------------------------------------------
w/ wah

3
D-10-12-13-15-17b18r17p15p13h15-13-17-15-13h15p13p10~~~-
A-------------------------------------------------------
F-------------------------------------------------------
C-------------------------------------------------------
G-------------------------------------------------------
C-------------------------------------------------------
w/ wah

Sorry about the solo, it'll sound descent but its
not perfect.
Comments