Godsmack - Going Down Chords & Tabs

 

Going Down Chords & Tabs

Godsmack Chords & Tabs

Version: 1 Type: Tab

Going Down Tab

Weird, but good song.  Listen to the CD for timing.

Goin' Down
As performed on "Awake"
Music by Sully, Tony, and Robbie
Lyrics by Sully

Drop D tuning

~    vibrating
\    slide down
TR   tremelo picking

Intro/Main riff (Bass enters, x8)
Guitar comes in on the 5th time w/ wah pedal  
e[----------------------------------------------
B[----------------------------------------------
G[----------------------------------------------
D[----------------------------------------------
A[---------5-3----------------------------------
D[-0---3-5-----5-3------------------------------

Verse
e[----------------------------------------------
B[-11~~~~~~~\-----------------------------------
G[-12~~~~~~~\-----------------------------------
D[----------------------------------------------
A[----------------------------------------------
D[----------------------------------------------

Play Main riff four times

Play Verse

Main riff (x4)
[ Tab from: http://www.guitartabs.cc/tabs/g/godsmack/going_down_tab.html ]
Chorus             Play this twice 
e[---------------[-----------------]--------------------
B[---------------[-----------------]--------------------
G[-7---5---4---3-[-----------------]-7---10--9---8------
D[-7---5---4---3-[-----------------]-7---10--9---8------
A[-5---3---2---1-[---------5-3-----]-5---8---7---6------
D[---------------[-0---3-5-----5-3-]--------------------

Play Main riff four times

Verse

Chorus

Main riff (x6)

GUITAR SOLO
Wah pedal
e[-----]-----------------------------------------
B[-9---]--12----12-----14--12---11--10--9--------
G[-----]-----------------------------------------
D[-----]-----------------------------------------
A[-----]-----------------------------------------
D[-----]-----------------------------------------
  TR      TR..............................

Chorus

That's it

SONG STRUCTURE
Intro
Main Riff
Verse
Main Riff
Verse
Main Riff
Chorus
Main Riff
Verse
Main Riff
Chorus
GUITAR SOLO
Main Riff
Chorus

Peace.