Godsmack - Going Down Chords & Tabs

 

Going Down Chords & Tabs

Godsmack Chords & Tabs

Version: 3 Type: Bass Tab 0 ratings
1 star 2 stars 3 stars 4 stars 5 stars
comments

Going Down Bass Tab

Band: Godsmack
Song: Going Down
Tabbed By: Daniel Luengas
E-Mail: daniel182col@hotmail.com

This song has a very cool bass, and I'm sure this 
Tab is 100% correct, so.... Enjoy....

Intro: 
G|-----------------------------------------|
D|-----------------------------------------|
A|-----------------------------------------| X12
E|-0-0-8-9-8-0-7-0-------------------------|

Verse:
G|-----------------------------------------|
D|-----------------------------------------|
A|-----------------------------------------| X14
E|-0-0-8-9-8-0-7-0-------------------------|

Yeah..yeah..yeah..yeah..
G|-----------------------------------------|
D|-----------------------------------------|
A|-----------------------------------------| X4
E|-0-0-8-9-8-0-7-0-------------------------|

Verse:
G|-----------------------------------------|
D|-----------------------------------------|
A|-----------------------------------------| X14
E|-0-0-8-9-8-0-7-0-------------------------|

Guitar Plays and then..

G|-----------------------------------------|
D|-----------------------------------------|
A|-----------------------------------------| X3
E|-0-0-8-9-8-0-7-0-------------------------|

Chorus:
G|-----------------------------------------|
D|-----------------------------------------|
A|-----------------------------------------|
E|-33333-55555-77777-55555-7-9-------------|

G|-----------------------------------------|
D|-----------------------------------------|
A|-----------------------------------------| X2
E|-0-0-8-9-8-0-7-0-------------------------|

G|-----------------------------------------|
D|-----------------------------------------|
A|-----------------------------------------|
E|-33333-55555-77777-55555-7-9-------------|

G|-----------------------------------------|
D|-----------------------------------------|
A|-----------------------------------------| X4
E|-0-0-8-9-8-0-7-0--0-0--------------------|
[ Tab from: http://www.guitartabs.cc/tabs/g/godsmack/going_down_btab_ver_3.html ]
Verse:
G|-----------------------------------------|
D|-----------------------------------------|
A|-----------------------------------------| X12
E|-0-0-8-9-8-0-7-0-------------------------|

Chorus:
G|-----------------------------------------|
D|-----------------------------------------|
A|-----------------------------------------|
E|-33333-55555-77777-55555-----------------|

G|-----------------------------------------|
D|-----------------------------------------|
A|-----------------------------------------| X2
E|-0-0-8-9-8-0-7-0-------------------------|

Guitar Plays and then..

Part before bridge:
G|-----------------------------------------|
D|-----------------------------------------|
A|-----------------------------------------| X3
E|-0-0-8-9-8-0-7-0-------------------------|

G|-----------------------------------------|
D|-----------------------------------------|
A|-----------------------------------------| X1
E|-0-0-8-9-8-0-7-0--0-0--------------------|

Bridge:
G|-----------------------------------------|
D|-----------------------------------------|
A|-----------------------------------------| X3
E|-3333333-5555555-7777777-----------------|

After Bridge:
G|-----------------------------------------|
D|-----------------------------------------|
A|-----------------------------------------| X1
E|-0--0------------------------------------|

G|-----------------------------------------|
D|-----------------------------------------|
A|-----------------------------------------| X3
E|-0-0-8-9-8-0-7-0-------------------------|

Chorus:
G|-----------------------------------------|
D|-----------------------------------------|
A|-----------------------------------------| X3
E|-33333-55555-77777-55555-----------------|

G|-----------------------------------------|
D|-----------------------------------------|
A|-----------------------------------------| X3
E|-0-0-8-9-8-0-7-0-------------------------|

O.K that's it, it's a pretty easy song
Something wrong?  E-mail me!!!
Comments