Godsmack - Godsmack Chords & Tabs

 

Godsmack Chords & Tabs

Godsmack Chords & Tabs

Version: 2 Type: Tab 0 ratings
1 star 2 stars 3 stars 4 stars 5 stars
comments

Godsmack Tab

   
Band- Godsmack
Album- Godsmack

1.Moon Baby
2.Whatever
3.Keep Away
4.Time Bomb
5.Bad Religion
6.Immune
7.Someone In London
8.Get Up,Get Out
9.Now Or Never
10.Stress
11.Situation
12.Voodoo

1.MOON BABY

Verse
E--------------------------|-----------------------------|
B--------------------------|-----------------------------|
G--------------------------|-----------------------------|
D-4-4-4-4-4--4-4-4---0-2-2-|4-4-4-4-4--4-4-4-5-5-7-7-5-5-| x6
A-4-4-4-4-4--4-4-4---0-2-2-|4-4-4-4-4--4-4-4-5-5-7-7-5-5-|
D-4-4-4-4-4--4-4-4---0-2-2-|4-4-4-4-4--4-4-4-5-5-7-7-5-5-|

Chorus
E-----------------------|-------------------|
B-----------------------|-------------------|
G-----------------------|-------------------|
D-0-0--------0-0--------|4-4--------4-4-4-2-| x2
A-0-0-5h6-5--0-0-5h6-5--|4-4-4h5-4--4-4-4-2-|
D-0-0--------0-0--------|4-4--------4-4-4-2-|

Verse 2
E--------------------------|-------------------------|
B--------------------------|-------------------------|
G--------------------------|-------------------------|
D-4-4-4-4-4--4-4-4---0-2-2-|4-4-4-4-4--4-4-4---0-2-2-|
A-4-4-4-4-4--4-4-4---0-2-2-|4-4-4-4-4--4-4-4---0-2-2-|
D-4-4-4-4-4--4-4-4---0-2-2-|4-4-4-4-4--4-4-4---0-2-2-|

E--------------------------|-------------------------|
B--------------------------|-------------------------|
G--------------------------|-------------------------|
D-4-4-4-4-4--4-4-4---0-2-2-|4-4-4-4-4--4-4-4---------|
A-4-4-4-4-4--4-4-4---0-2-2-|4-4-4-4-4--4-4-4---------|
D-4-4-4-4-4--4-4-4---0-2-2-|4-4-4-4-4--4-4-4---------|

Verse x4
Chorus x4
Verse x2 (little different on the ending)

Part 1
E-------------------------|
B-------------------------|
G-------------------------|
D-0-4--0-4--0-4--0-4--5/4-| x8
A-0-4--0-4--0-4--0-4--5/4-|
D-0-4--0-4--0-4--0-4--5/4-|

Part 2
E----------------------|
B----------------------|
G----------------------|
D----------------------|
A-99999999997777777777-|
D----------------------|
i think used with a wa-wa pedal

Part 1 x2
Part 2
Part 1
Part 2 x2

Part 4
E-------|
B-------|
G-------|
D-4--9/-| x2
A-4--9/-|
D-4--9/-|

Part 1 x4
Part 2
Part 1 x2
Part 2
part 1


Part 5
E--------------------|
B--------------------|
G--------------------|
D-0-4--0-4--0-4--0-4-|
A-0-4--0-4--0-4--0-4-|
D-0-4--0-4--0-4--0-4-|

2.WHATEVER

Intro:
                 x7       Finish with:
D--------------------------|---------|
A----------------10-10-10--|---------|
F-(or fade)------13-13-13--|---------|
C---h5\\/----0-0------------|--0-0---|
G---h5\\/----0-0------------|--0-0---|
C---h5\\/----0-0------------|--0-0---|
PM          . .               . .


Verse x8:
D------------------|
A--------10-10-10--|
F--------13-13-13--|
C---0-0------------|
G---0-0------------|
C---0-0------------|
PM  . .

Prechorus:
D--------------------------------------------------|
A--------------------------------------------------|
F--------h7~------------------h7~------------------|
C---0~---h7~-6~---6-6----0~---h7~-10~---6-6--3-3---|
G---0~---h5~-6~---6-6----0~---h5~-10~---6-6--3-3---|
C---0~-------6~---6-6----0~-------10~---6-6--3-3---|
PM                . .                   . .  . .

Chorus:
           X3                Then:
D-----------------------|-------|
A-----------------------|-------|
F-----------------------|-------|
C---0-0---6----5----3---|--0-0--|
G---0-0---6----5----3---|--0-0--|
C---0-0---6----5----3---|--0-0--|
PM                         . .

Verse x11

Prechorus x2

Chorus (1st time):
           X3                Then:
D-----------------------|------------|
A-----------------------|------------|
F-----------------------|------------|
C---0-0---6----5----3---|--3-0--0-0--|
G---0-0---6----5----3---|--3-0--0-0--|
C---0-0---6----5----3---|--3-0--0-0--|
PM                           .  . .

Chorus (2nd time):
Guitar 1:
           X3                Then:
D-----------------------|-----------|
A-----------------------|-----------|
F-----------------------|-----------|
C---0-0---6----5----3---|--0-3-3-3--|
G---0-0---6----5----3---|--0-3-3-3--|
C---0-0---6----5----3---|--0-3-3-3--|
PM                         . . . .

Guitar 2 w/wah x3:
D--------------------------|
A--------------------------|
F---7~/13~----12~----10~---|
C---x~--x~-----x~-----x~---|
G---5~/11~----10~-----8~---|
C--------------------------|

Finish song with verse

3.KEEP AWAY

Intro:
e|----------------------|
B|----------------------|
G|-7-7-7-7-7-7-7-7-7777-|
D|-x-x-x-x-x-x-x-x-xxxx-|
A|-5-5-5-5-5-5-5-5-5555-|
D|----------------------|

Pre-Verse Riff
E| ----------------------------------------------------------|
B| ----------------------------------------------------------|
G|-----------------------------------------------------------|
D|----0---0---0h3-3-3-3-3--3--3/5-5--5--5-5-5/6-6-6-6-3--0---|
A|-0--0---0---0h3-3-3-3-3--3--3/5-5--5--5-5-5/6-6-6-6-3--0---|
D|----0---0---0h3-3-3-3-3--3--3/5-5--5--5-5-5/6-6-6-6-3--0---|

E|-------------------------------------------------------------|
B|-------------------------------------------------------------|
G|-------------------------------------------------------------|
D|-(0)---0---0---0h3-3-3-3-3--3--3/5-5--5-5-5-5/6-6-6-6-3--0---|
A|-(0)---0---0---0h3-3-3-3-3--3--3/5-5--5-5-5-5/6-6-6-6-3--0---|
D|-(0)---0---0---0h3-3-3-3-3--3--3/5-5--5-5-5-5/6-6-6-6-3--0---|

Verse:
E|-------------------------------------------------------------|
B|-------------------------------------------------------------|
G|-------------------------------------------------------------|
D|-(0)---0---0h3-3-3-3-3--3--x-x-5--5--5-5--5-5/6-6-6-6-3--0---|
A|-(0)---0---0h3-3-3-3-3--3--x-x-5--5--5-5--5-5/6-6-6-6-3--0---|
D|-(0)---0---0h3-3-3-3-3--3--x-x-5--5--5-5--5-5/6-6-6-6-3--0---|

Chorus:

e|-------------------------------------------------------------|
B|-------------------------------------------------------------|
G|-7------7-----5---5--5--5--5--5--5--5--2---2/3-3-3--3-3-3--x-|
D|-7------7-----5---5--5--5--5--5--5--5--2---2/3-3-3--3-3-3--x-|
A|-5------5-----3---3--3--3--3--3--3--3--0---0/1-1-1--1-1-1--x-|
D|-------------------------------------------------------------|

e|--------------------------------------------------------||
B|--------------------------------------------------------||
G|-7------7-----5---5--5--5--5--5--5--5--2--2-------------||
D|-7------7-----5---5--5--5--5--5--5--5--2--2-----12\\----||
A|-5------5-----3---3--3--3--3--3--3--3--0--0-----12\\----||
D|------------------------------------------------12\\----||

e|------------------------------------------------------------------------|
B|------------------------------------------------------------------------|
G|-5-5-2--2---2/3-3-3-3-3-3-3--7--7---5-5-5-5-5-5-5-5-5-2-2--2/3-3-3-3-3--|
D|-5-5-2--2---2/3-3-3-3-3-3-3--7--7---5-5-5-5-5-5-5-5-5-2-2--2/3-3-3-3-3--|
A|-3-3-0--0---0/1-1-1-1-1-1-1--5--5---3-3-3-3-3-3-3-3-3-0-0--0/1-1-1-1-1--|
D|------------------------------------------------------------------------|

e|----------------------------------------------------------------|--0--|
B|----------------------------------------------------------------|--3--|
G|-7------7-----5---5--5--5--5--5--5--5--2--2----2/3-3-3-3-3-5----|--2--|
D|-7------7-----5---5--5--5--5--5--5--5--2--2----2/3-3-3-3-3-5--0-|--0--|
A|-5------5-----3---3--3--3--3--3--3--3--0--0----0/1-1-1-1-1-3--0-|--0--|
D|--------------------------------------------------------------0-|--0--|

Interlude:
e|---------------------------------------------------------|
B|--3--3--3--3----3--3--3--3---3--3--3--3-----3--3--3--3---|
G|--2--2--2--2----1--1--1--1---2--2--2--2-----1--1--1--1--o|
D|--0--0--0--0----0--0--0--0---0--0--0--0-----0--0--0--0--o|
A|---------------------------------------------------------|
D|---------------------------------------------------------|

e|----------------------|-------------------------------------------|
B|----------------------|-------------------------------------------|
G|-7-7-7-7-7-7-7-7-7777-|-10-10101010101010-12-12-12-12-12-12-12-12-|
D|-x-x-x-x-x-x-x-x-xxxx-|--x--x-x-x-x-x-x-x--x--x--x--x--x--x--x--x-|
A|-5-5-5-5-5-5-5-5-5555-|--8--8-8-8-8-8-8-8/10-10-10-10-10-10-10-10-|
D|----------------------|-------------------------------------------|

Key:
 ^ Bend
p Pull-off
h Hammer-on
*=pinch harmonic

Solo: with Wah
e|----------------------------------------------------------------|
B|----------------------------------------------------------------|
G|-*13^--------x--13^-------13--13^--\---12^-h10-----10--12--10^--|
D|--1/2 bend---x--full---------1/2-------full-----12---------full-|
A|----------------------------------------------------------------|
D|----------------------------------------------------------------|

e|-------------------------------------------------------------------|
B|-------------------------------------------------------------------|
G|--------------------------------------10^--------------------------|
D|-12--10----10------------------------full--12--10----10----10-12^--|
A|--------12----12/h8--8^-\0--0--0------------------12----12---------|
D|--------------------full----------/12------------------------------|

e|------------------------------------10----10h12-10---10-----------(13)-|
B|------------------------------13^------13----------13-----13^hold-(13)-|
G|-----------------------------------------------------------------------|
D|-h10--*12---12---*12---12\--x---------------------------x--------------|
A|--------------------------------------------------------x--------------|
D|-----------------------------------------------------------------------|

e|-----13h17---13^----13^--(13)\-------|
B|-15----------13^----13^--(13)\-------|
G|-------------------------------------|
D|-------------------------------------|
A|-------------------------------------|
D|-------------------------------------|

4.TIME BOMB

RIFF 1:

-----------------------------------------|
-----------------------------------------|
-5/7--7--7-7-7-7--7-8-----5/7--7--7-7-7\-|
-5/7--7--7-7-7-7--7-8-----5/7--7--7-7-7\-|
-3/5--5--5-5-5-5--5-6-----3/5--5--5-5-5\-|
-----------------------------------------|

RIFF 2:

---------------------------------------------------|
---------------------------------------------------|
-5/7--7--7-7-7-7--7-10-----5/7--7--7-7-7----8----8-|
-5/7--7--7-7-7-7--7-10-----5/7--7--7-7-7--x-8--x-8-|
-3/5--5--5-5-5-5--5--8-----3/5--5--5-5-5--x-6--x-6-|
------------------------------------------x----x---|

RIFF 3:

--------------------------|
--------------------------|
--------------------------|
-5/7-7-7-x-x-5/7-7-8-5--5-|
-5/7-7-7-x-x-5/7-7-8-5--5-|
-5/7-7-7-x-x-5/7-7-8-5--5-|

RIFF 4:

----------|
----------|
----------|
-5/7--7-7-|
-5/7--7-7-|
-5/7--7-7-|

RIFF 5:

---------------------------------------|
---------------------------------------|
-5/7--7-7--5/7--7-7--5/7--7--10--5-5-5-|
-5/7--7-7--5/7--7-7--5/7--7--10--5-5-5-|
-3/5--5-5--3/5--5-5--3/5--5---8--3-3-3-|
---------------------------------------|

RIFF 6:

--------------|
--------------|
--------------|
-8-----7---10-|
-8-----7---10-|
-8-----7---10-|

RIFF 7:

------------------------------------------------------------------------|
------------------------------------------------------------------------|
7--7-5/7--7-5/7--7-5/7--7-5/7--7-5/7--7-5/7--7-5/7--7-5/7--7-5/7--7-5-5-|
7--7-5/7--7-5/7--7-5/7--7-5/7--7-5/7--7-5/7--7-5/7--7-5/7--7-5/7--7-5-5-|
5--5-3/5--5-3/5--5-3/5--5-3/5--5-3/5--5-3/5--5-3/5--5-3/5--5-3/5--5-3-3-|
------------------------------------------------------------------------|

RIFF 8:

--------|
--------|
-5/7--7-|
-5/7--7-|
-3/5--5-|
--------|

5.BAD RELIGION

Intro:
E----------------------------|
B----------------------------|
G----------------------------|
D---0--0--0-0-----0-----0-0--|"GET BACK!"
A---0--0--0-0-(r)-0-(r)-0-0--|
D---0--0--0-0-----0-----0-0--|
(PM .  .  . .  .  . .)
sounds good using palm mute for an easy method,
but really he uses rests

Verse:
E-----------------------------------------------------------------|
B-----------------------------------------------------------------|
G-----------------------------------------------------------------|
D---0--0--0-0-----0-----0-----0-0--0--0--0-0-----0-----0-----0-0--|
A---0--0--0-0-(r)-0-(r)-0-(r)-0-0--0--0--0-0-(r)-0-(r)-0-(r)-0-0--|
D---0--0--0-0-----0-----0-----0-0--0--0--0-0-----0-----0-----0-0--|
PM  .  .  . .     .     .     . .  .  .  . .     .     .     . .

Let the last note ring on this riff right before the chorus


Chorus:
E---------------------------------------------------------------------------|
B---------------------------------------------------------------------------|
G---7\5-5-5-5-5-5-5-5-5-5-5-5-5-5/7-7-7-7-7-7-7-7-7-7-7\5-5-5-5-5-5-5-5-5-5-|
D---x-x-x-x-x-x-x-x-x-x-x-x-x-x-x-x-x-x-x-x-x-x-x-x-x-x-x-x-x-x-x-x-x-x-x-x-|
A---5\3-3-3-3-3-3-3-3-3-3-3-3-3-3/5-5-5-5-5-5-5-5-5-5-5\3-3-3-3-3-3-3-3-3-3-|
D---------------------------------------------------------------------------|

After 1st chorus play the 1st intro riff
(another verse takes place after)

Second chorus add this:
E---------------------------------------------------------------|
B---------------------------------------------------------------|
G---5/7-7-7-7-7-7-7-7-7-7-7-7-7-7\5-5-5-5-5-5-5-5-5-5-----------|
D---x-x-x-x-x-x-x-x-x-x-x-x-x-x-x-x-x-x-x-x-x-x-x-x-x-----------|
A---3/5-5-5-5-5-5-5-5-5-5-5-5-5-5\3-3-3-3-3-3-3-3-3-3---/11\-7--|
D------------------------------------------------------------7--|

E---------------------------------------|
B---------------------------------------|
G---------------------------------------|
D----L-------------L--------------------|
A---8\7-7-7---7-7-8\7-7--7--5--3--2p0---|
D---8\7-7-7---7-7-8\7-7--7--5--3--2p0---|

Interlude x2:
E-------------------------------------------------------------|
B-------------------------------------------------------------|
G---7-----------5----------------4-----------3----------------|
D---x-----------x----------------x-----------x----------------|
A---5-----------3----------------2-----------1----------------|
D------0--0--0-----0--0-2-0-2h3-----0--0--0-----0--0-2-0-2h3--|

E-------------------------------------------------------------|
B-------------------------------------------------------------|
G---7-----------5----------------4-----------5----------------|
D---x-----------x----------------x-----------x----------------|
A---5-----------3----------------2-----------3----------------|
D------0--0--0-----0--0-2-0-2h3-----0--0--0-----0--0-2-0-2h3--|


End with verse riffs

6.IMMUNE

Intro (Bass)
G|------------------------------|-----------------------------|
D|------------------------------|-----------------------------|
A|-------5-----5-----5/7-7--7-7-|------5-----5-----5/7-7--7-7-| x2
D|-0--0-----0-----0-------------|0--0-----0-----0-------------|

Intro: (guitar) comes in after about 4 measures
e|------------------------------|
B|------------------------------|
G|------------------------------|
D|------------------------------|
A|-5~~~~~~~~~~~~~~~~~~(5)~~~~~~~|
D|-0~~~~~~~~~~~~~~~~~~(0)~~~~~~~|

e|-------------------------------------------------------|
B|-------------------------------------------------------|
G|-------------------------------------------------------|
D|-------------------------------------------------------|
A|-3~~~~~~~~~~~(3)~~~~~7----5~~~~~~~~~~~~~~~~~~~~~~~~~~~~|
D|-------------------------------------------------------|

Ok, now for the verse.  How he really plays the verse is
with harmonics and pick scrapes like below.
e|----------------|----------------|
B|----------------|----------------|
G|----------7---7-|------5---------|
D|x-x-x-x-7---7---|x-x-x-----5---7-|
A|--------**harm**|----------------|
D|----------------|----------------|

But, since that is harder then hell to do, this is what
I play with my band when we play this song, i think it
sounds pretty decent.  All I do is follow the bass line
using my wah pedal.

Verse: Wah Wah Pedal (follow with bass) To make a harmonic
sound like the real verse, keep toe towards top
e|------------------------------|-----------------------------|
B|------------------------------|-----------------------------|
G|------------------------------|-----------------------------|
D|------------------------------|-----------------------------|
A|-------5-----5-----5/7-7--7-7-|------5-----5-----5/7-7--7-7-|
D|-0--0-----0-----0-------------|0--0-----0-----0-------------|

Chorus:
e|------------------------------|-----------------------------|
B|------------------------------|-----------------------------|
G|------------------------------|-----------------------------|
D|-0--0--2--0--2--0--2/3-3--3-3-|0--0--2--0--2--0--2/3-3--3-3-|
A|-0--0--2--0--2--0--2/3-3--3-3-|0--0--2--0--2--0--2/3-3--3-3-| x2
D|-0--0--2--0--2--0--2/3-3--3-3-|0--0--2--0--2--0--2/3-3--3-3-|

e|------------------------------|
B|------------------------------|
G|------------------------------|
D|------------------------------|
A|-5~~~~~~~~~~~~~~~~~~~~~~~~~~~~|
D|-0~~~~~~~~~~~~~~~~~~~~~~~~~~~~|
[ Tab from: http://www.guitartabs.cc/tabs/g/godsmack/godsmack_tab_ver_2.html ]
e|----------------------------------------------------------|
B|----------------------------------------------------------|
G|----------------------------------------------------------|
D|----------------------------------------------------------|
A|-3~~~~~~~~~(3)~~~~~~~~~~~7---5~~~~~~~~~~~~~~~~~~~~~~~~~~~~|
D|----------------------------------------------------------|


Verse x4
Chorus right into bridge

Bridge:
e|------------------------------|----------------------------|
B|------------------------------|----------------------------|
G|------------------------------|----------------------------|
D|-0---0-0---0-0---0-0---0-2-2--|0---0-0---0-0---0-0---0-3-3-|
A|-0---0-0---0-0---0-0---0-2-2--|0---0-0---0-0---0-0---0-3-3-|
D|-0---0-0---0-0---0-0---0-2-2--|0---0-0---0-0---0-0---0-3-3-|

Solo 1:
e|------------------------------------|
B|------------------------------------|
G|-7~---9/10----12-10---5-7~-----7~---| x2
D|-x~---x/-x----x--x----x-x~-----x~---|
A|-5~---7/-8----10--8---3-5~-----5~---|
D|------------------------------------|

Verse: Wah Wah Pedal (follow with bass)
e|------------------------------|-----------------------------|
B|------------------------------|-----------------------------|
G|------------------------------|-----------------------------|
D|------------------------------|-----------------------------|
A|-------5-----5-----5/7-7--7-7-|------5-----5-----5/7-7--7-7-|
D|-0--0-----0-----0-------------|0--0-----0-----0-------------|


Chorus
e|------------------------------|-----------------------------|
B|------------------------------|-----------------------------|
G|------------------------------|-----------------------------|
D|-0--0--2--0--2--0--2/3-3--3-3-|0--0--2--0--2--0--2/3-3--3-3-|
A|-0--0--2--0--2--0--2/3-3--3-3-|0--0--2--0--2--0--2/3-3--3-3-| x2
D|-0--0--2--0--2--0--2/3-3--3-3-|0--0--2--0--2--0--2/3-3--3-3-|


Bridge 2: Let ring while bass plays then drums bring u back in
with bridge 1
e|-------------|
B|-------------|
G|-------------|
D|-0---0-0~~---|
A|-0---0-0~~---|
D|-0---0-0~~---|

Drums bring you back in while bass keeps playing from where
you left off.

Bridge 1:
e|------------------------------|----------------------------|
B|------------------------------|----------------------------|
G|------------------------------|----------------------------|
D|-0---0-0---0-0---0-0---0-2-2--|0---0-0---0-0---0-0---0-3-3-|
A|-0---0-0---0-0---0-0---0-2-2--|0---0-0---0-0---0-0---0-3-3-|
D|-0---0-0---0-0---0-0---0-2-2--|0---0-0---0-0---0-0---0-3-3-|

Guitar Solo: w/wah
e|----------------------|----------------------------------------|
B|----------------------|----------------------------------------|
G|----13----13--13-13-13|-13-13\/13-13-13-13-13-13----13-13-14-13|
D|-12----12-----12-12-12|-12-12\/12-12-12-12-12-12-12-12-12-12-12|
A|-let ring-------------|----------------------------------------|
D|----------------------|----------------------------------------|

e|--------------------------------------------------------------|
B|--------------------------------------------------------------|
G|-----------10-10-10------------------------10-10-10-----------|
D|-12/----------------12----10-10-12-12\-0-0----------*12-9h/10-|
A|----/9h/10----------------------------------------------------|
D|--------------------------------------------------------------|

e|--------------------------------------------------------------|
B|--------------------------------------------------------------|
G|-*10-----------13------13-13-13-13\---/13-13-13-13-13-13-13-13|
D|------(0)--x-x-12------12-12-12-12\(3)/12-12-12-12-12-12-12-12|
A|-----------x-x------------------------------------------------|
D|--------------------------------------------------------------|

e|-------------------------------------------------------------|
B|------------13^--------13^--------13^-------13^-----13^--\---|
G|-------x-x--full------half--------full-----full-----13^--\---|
D|-12\---x-x---------------------------------------------------|
A|-------------------------------------------------------------|
D|-------------------------------------------------------------|

Outro:
e|-----------------------------------------------------------|
B|-----------------------------------------------------------|
G|-12^-----10-----\-x--10------------------------------------|
D|-full-------------x------12-10h12p10-----------------------|
A|-------------------------------------12-10-12-11-10\8^-----|
D|---------------------------------------------------full----|

e|---------10-------10----------------------------10h13p10--|
B|------------13h10----13h10--------------------------------|
G|---12^---------------------13/131313131313\-12^-----------|
D|-x-full-----------------------121212121212\--full---------|
A|-x------------------------------------1-------------------|
D|----------------------------------------------------------|

e|--1313131313/1616161616/191919191919\------------|
B|--1212121212/1515151515/181818181818\------------|
G|------------------------------------------1~~~~--|
D|------------------------------------------0~~~~--|
A|-------------------------------------------------|
D|-------------------------------------------------|

7.SOMEONE IN LONDON

Intro/Verse:                          1st time
e|-----------------------------------|-------------|
B|---------------5-------------------|-------------|
G|------full--------7----------------|-------------|
D|------6^---3-0------------------6^-|-----0----0--|
A|----5-----------------------5------|-------------|
D|--0---------------------0----------|--3-----2----|

  2nd time
e|-------------------|
B|-------------------|
G|-------------------|
D|------0-----0---0--|
A|----3-----2--------|
D|--3-----2----1-----|


end chord: Let Ring out
e|---------|
B|-----3~--|
G|-----2~--|
D|-----0~--|    THEN IT JUMPS INTO "GET UP, GET OUT"
A|-----0~--|     If you are listening to the cd that is...
D|-----0~--|

8.GET UP,GET OUT

See other tab

9.NOW OR NEVER

RIFF 1:

    |------------------------------|
    |-------------------------8----|
    |-10-----9-----7-----7/8--x--7-|
    |--x-----x-----x-----x/x--5--x-|
    |--8-----7-----5-----5/6-----5-|
    |------------------------------|

     RIFF 2:

    |------------------------------|
    |------------------------------|
    |-10-----12------7-----7-7-7-7-|
    |--x------x------x-----x-x-x-x-|
    |--8-----10------5-----5-5-5-5-|
    |------------------------------|

     RIFF 3:

    |---------------------------------------------------|
    |---------------------------------------------------|
    |--------10-------------------------10------------8-|
    |-0-0--0-10--0-0--0-0--6--7--0-0--0-10--0-0--0-0--8-|
    |-0-0--0--8--0-0--0-0--6--7--0-0--0--8--0-0--0-0--6-|
    |-0-0--0-----0-0--0-0--6--7--0-0--0-----0-0--0-0----|

     RIFF 4:

    |--------------------------------------------------------|
    |--------------------------------------------------------|
    |--------10-------------------------10-----------7-7-7-7-|
    |-0-0--0-10--0-0--0-0--6--7--0-0--0-10--0-0--0-0-x-x-x-x-|
    |-0-0--0--8--0-0--0-0--6--7--0-0--0--8--0-0--0-0-5-5-5-5-|
    |-0-0--0-----0-0--0-0--6--7--0-0--0-----0-0--0-0---------|

     RIFF 5:

    |---------------------------------------------------|
    |---------------------------------------------------|
    |-------------------------------------------------8-|
    |-------------------------------------------------x-|
    |-x--x-x-6/8-8-x--x-x--------x--x-x-6/8-8-x--x-x--6-|
    |-x--x-x-------x--x-x--6--7--x--x-x-------x--x-x----|

     RIFF 6:

    |-----------|
    |-----------|
    |-7-------5-|
    |-7-------5-|
    |-5-------3-|
    |-----------|

     RIFF 7:

    |-------------------------------|
    |-------------------------------|
    |-5/7--7-7-10--5-5/7--7-7-------|
    |-5/7--7-7-10--5-5/7--7-7--6--7-|
    |-3/5--5-5--8--3-3/5--5-5--6--7-|
    |--------------------------6--7-|

     RIFF 8:

    |---------------------|
    |---------------------|
    |---------------------|
    |-5-----3-----3--3--3-|
    |-5-----3-----3--3--3-|
    |-5-----3-----3--3--3-|

     RIFF 9:

    |---------------------------|
    |---------------------------|
    |-5/7--7-7-10--5-5--7-7\\---|
    |-5/7--7-7-10--5-5--7-7\\---|
    |-3/5--5-5--8--3-3--5-5\\---|
    |---------------------------|

10.STRESS

intro(main riff) :
e|-----------------------------|------------------------|
b|-----------------------------|------------------------|
g|-----------------------------|------------------------|
d|--0h4-4-4-4--0h4-4-4-4--0h4-5|-0h4-4-4-4--0h4-4-4-4--4|
a|--0h4-2-2-2--0h2-2-2-2--0h2-3|-0h2-2-2-2--0h2-2-2-2--2|
d|-----------------------------|------------------------|

chorus:
e|--------------|---------------------|-----------------|
b|--------------|---------------------|-----------------|
g|--------------|---------------------|-----------------|
d|/9---9---9-9-9|7---7---12-(12)\7-(7)|0h4-4-4-4--0h4...|
a|/7---7---7-7-7|5---5---10-(10)\5-(5)|0h2-2-2-2--0h2...|
d|--------------|---------------------|-----------------|

Interlude:
e|-------------------------------|----------------------|
b|-------------------------------|----------------------|
g|-------------------------------|------repeat----------|
d|2-2-2-2-2-2-2-2-2-3-3-3-0-0-0-0|2-2-2..........-------|
a|-------------------------------|----------------------|
d|2-2-2-2-2-2-2-2-2-3-3-3-0-0-0-0|2-2-2..........-------|
  - - - - - - - - - - - - - - - - - - - - - - - - - - - -
  palm muted                       palm muted

Bridge:
e|---------------------------------|--------------------|
b|---------------------------------|--------------------|
g|---------------------------------|--------------------|
d|10s9-9-9-9-9-9-9-9---9-9-10s9-9-9|10s9-9-9--7-7-7-7-7-|
a|10s9-9-9-9-9-9-9-9---9-9-10s9-9-9|10s9-9-9--7-7-7-7-7-|
d|10s9-9-9-9-9-9-9-9---9-9-10s9-9-9|10s9-9-9--7-7-7-7-7-|

11.SITUATION

RIFF 1:

|----------------------------------------------------------------|
|----------------------------------------------------------------|
|-8\7-7-7--7-7-8\7-7-7--7-7-8\7-7-7--7-7-8\7-7--10-5-5/7-------7-|
|-8\7-7-7--7-7-8\7-7-7--7-7-8\7-7-7--7-7-8\7-7--10-5-5/7-0-0-0-7-|
|-6\5-5-5--5-5-6\5-5-5--5-5-6\5-5-5--5-5-6\5-5---8-3-3/5-0-0-0-5-|
|--------------------------------------------------------0-0-0---|

RIFF 2:

|-------------------------|
|-------------------------|
|-------------------------|
|-3--3-3-3--1--1-1--1-1-1-|
|-3--3-3-3--1--1-1--1-1-1-|
|-3--3-3-3--1--1-1--1-1-1-|

RIFF 3:

|-----------------------------|
|-----------------------------|
|-----------------------------|
|-0-0--0-0--0-0--0-0--0-0-1-3-|
|-0-0--0-0--0-0--0-0--0-0-1-3-|
|-0-0--0-0--0-0--0-0--0-0-1-3-|

RIFF 4:

|---------------------------|
|---------------------------|
|-------------------------4-|
|-0-0--0-0--0-0--0-0--1-3-4-|
|-0-0--0-0--0-0--0-0--1-3-2-|
|-0-0--0-0--0-0--0-0--1-3---|

RIFF 5:

|----------------------------------------------------|
|----------------------------------------------------|
|-5/7-----8--5--5/7-----8--10--8\7-----8--5--5/7-----|
|-x/x-----x--x--x/x-----x---x--x\x-----x--x--x/x---7-|
|-3/5-----6--3--3/5-----6---8--6\5-----6--3--3/5---7-|
|--------------------------------------------------7-|

RIFF 6:

|----------------------------------------------------|
|----------------------------------------------------|
|-5/7-----8--5--5/7-----8--10--8\7-----8--5--5/7-----|
|-x/x-----x--x--x/x-----x---x--x\x-----x--x--x/x---3-|
|-3/5-----6--3--3/5-----6---8--6\5-----6--3--3/5---3-|
|--------------------------------------------------3-|

12.VOODOO

Riff 1:
D------2-2/3-2--------------|
A------2-2/3-2--------------|
F---------------------------|
C---------------------------|
G---------------------------|
D---------------------------|


Riff 2:
D---------------------------|
A---------------------------|
F---------------------------|
C--2---2-2-2-2-2-2-2--------|
G--2---2-2-2-2-2-2-2--------|
D--0---0-0-0-0-0-0-0--------|
       P.M...(Gradually release)


Chorus Riff:
D------------------------------------------------------------------|
A------------------------------------------------------------------|
F------------------------------------------------------------------|
C--4---4-4-4-4---2---2---4-4---4-4-4---4-4-4-4---7---7---7-6/7-6\5-|
G--4---4-4-4-4---2---2---4-4---4-4-4---4-4-4-4---7---7---7-6/7-6\5-|
D--2---2-2-2-2---0---0---2-2---2-2-2---2-2-2-2---5---5---5-4/5-4\3-|
  I'm not the . . .
                                                 _________________
              Omit this stuff the first time -->|
   ----------------------------------------------------------------|
   ----------------------------------------------------------------|
   ----------------------------------------------------------------|
   4-4-4-4-4-4---2---2---4-4---4-4-4---4-4---4---7---7-7\6-6/7-6\5-|
   4-4-4-4-4-4---2---2---4-4---4-4-4---4-4---4---7---7-7\6-6/7-6\5-|
   2-2-2-2-2-2---0---0---2-2---2-2-2---2-2---2---5---5-5\4-4/5-4\3-|
   _____________________________________________________________

   -------------------------------------------------------------------|
   -------------------------------------------------------------------|
   -------------------------------------------------------------------|
   -4---4-4-4-4---2---2---4-4---4-4-4---4-4-4-4---7---7---7---6/7-6\5-|
   -4---4-4-4-4---2---2---4-4---4-4-4---4-4-4-4---7---7---7---6/7-6\5-|
   -2---2-2-2-2---0---0---2-2---2-2-2---2-2-2-2---5---5---5---4/5-4\3-|
   ___________________________________________
                                              |
   ---------------------------------------------------------------|
   ---------------------------------------------------------------|
   ---------------------------------------------------------------| hope u like it. took 
4ever do that ***
   4-4-4-4-4-4---2---2---4-4---4-4-4---4-4---4---2---4-4----------|
   4-4-4-4-4-4---2---2---4-4---4-4-4---4-4---4---2---4-4----------|
   2-2-2-2-2-2---0---0---2-2---2-2-2---2-2---2---0---2-2----------|

Bridge Riff:
D--------------------------------2-2/3-2--|
A--------------------------------2-2/3-2--|
F-----------------------------------------|
C--2---2-2-2-2-2-2-2-2-2-2-2-2-2----------|
G--2---2-2-2-2-2-2-2-2-2-2-2-2-2----------| (Last time just keep playing
D--0---0-0-0-0-0-0-0-0-0-0-0-0-0----------|  D5 until the chorus)
       P.M...(Gradually release)


Drop-D Tuning

   Low to High: D A D G B E

Use the same pickup

Riff 1:
E---------------------------|
B---------5-5/6-5-----------|
G---------4-4/5-4-----------|
D---------------------------|
A---------------------------|
D---------------------------|


Riff 2:
E---------------------------|
B---------------------------|
G---------------------------|
D--0---0-0-0-0-0-0-0--------|
A--0---0-0-0-0-0-0-0--------|
D--0---0-0-0-0-0-0-0--------|
       P.M...(Gradually release)


Chorus Riff:
E------------------------------------------------------------------|
B------------------------------------------------------------------|
G------------------------------------------------------------------|
D--2---2-2-2-2---0---0---2-2---2-2-2---2-2-2-2---5---5---5-4/5-4\3-|
A--2---2-2-2-2---0---0---2-2---2-2-2---2-2-2-2---5---5---5-4/5-4\3-|
D--2---2-2-2-2---0---0---2-2---2-2-2---2-2-2-2---5---5---5-4/5-4\3-|
  I'm not the . . .
                                                 _________________
              Omit this stuff the first time -->|
   ----------------------------------------------------------------|
   ----------------------------------------------------------------|
   ----------------------------------------------------------------|
   2-2-2-2-2-2---0---0---2-2---2-2-2---2-2---2---5---5-5\4-4/5-4\3-|
   2-2-2-2-2-2---0---0---2-2---2-2-2---2-2---2---5---5-5\4-4/5-4\3-|
   2-2-2-2-2-2---0---0---2-2---2-2-2---2-2---2---5---5-5\4-4/5-4\3-|
   ___________________________________________________________________

   -------------------------------------------------------------------|
   -------------------------------------------------------------------|
   -------------------------------------------------------------------|
   -2---2-2-2-2---0---0---2-2---2-2-2---2-2-2-2---5---5---5---4/5-4\3-|
   -2---2-2-2-2---0---0---2-2---2-2-2---2-2-2-2---5---5---5---4/5-4\3-|
   -2---2-2-2-2---0---0---2-2---2-2-2---2-2-2-2---5---5---5---4/5-4\3-|
   _____________________________________________
                                                |
   ---------------------------------------------------------------|
   ---------------------------------------------------------------|
   ---------------------------------------------------------------|
   2-2-2-2-2-2---0---0---2-2---2-2-2---2-2---2---0---2-2----------|
   2-2-2-2-2-2---0---0---2-2---2-2-2---2-2---2---0---2-2----------|
   2-2-2-2-2-2---0---0---2-2---2-2-2---2-2---2---0---2-2----------|

Bridge Riff:
E-----------------------------------------|
B--------------------------------5-5/6-5--|
G--------------------------------4-4/5-4--|
D--0---0-0-0-0-0-0-0-0-0-0-0-0-0----------|
A--0---0-0-0-0-0-0-0-0-0-0-0-0-0----------| (Last time just keep playing
D--0---0-0-0-0-0-0-0-0-0-0-0-0-0----------|  D5 until the chorus)
       P.M...(Gradually release)
Comments