Godsmack - Get Up Get Out Chords & Tabs

 

Get Up Get Out Chords & Tabs

Godsmack Chords & Tabs

Version: 1 Type: Bass Tab 0 ratings
1 star 2 stars 3 stars 4 stars 5 stars
comments

Get Up Get Out Bass Tab

   
Get Up, Get Out
Godsmack

Dropped D Tuning

Intro (play a few times)
G :| ----------------|----------------|
D :|*----------------|----------------|
A :|*----------------|----------------|
D :| 0---------------|0-------3---2---|

G :|----------------|---------------- |
D :|----------------|----------------*|
A :|----------------|----------------*|
D :|0---------------|3-----2-----1--- |

End: Play just 2nd line a few times
the end with low D:|0-----|

Verse
        Play Many X           Last Time
G :| ---------------- ||--------------------||
D :|*----------------*||--------------------||
A :|*----355-----3555*||----355-------------||
D :| 0-0----0-0-0---- ||0-0-----3-2-5-3-2-3-||

Pre-Chorus (a couple times)
G :| ----------------*|
D :|*----------------*|
A :|*----------------*|
D :| 5--6--5--6--5-6- |
[ Tab from: http://www.guitartabs.cc/tabs/g/godsmack/get_up_get_out_btab.html ]
Chorus
G :| ------------------------------|--------------------- |
D :|*------------------------------|---------------------*|
A :|*------------------------------|---------------------*|
D :| 0-0-10-12-12-0-0-0-10-12-12-12|0-0-10-12-12-3-331-11 |

G :|-------| 
D :|-------| Before Solo?
A :|5------| 
D :|-------|

Guitar Solo:  

Play many x under solo:
G :| ------4x-------- || --------4x------ ||
D :|*----------------*||*----355-----3555*||
A :|*----355-----3555*||*----------------*||
D :| 0-0----0-0-0---- || 5-5----5-5-5---- ||

After the solo goto the other bits then:

G :1-1-1-1-4-4-4-4-|7-7-7-7-10-10-10-10-|
D :----------------|--------------------|
A :----------------|--------------------|
D :----------------|--------------------|

G :13-13-13-13-13-13-13-13-|13-13-13-13-13-13-13-13-|
D :------------------------|------------------------|
A :------------------------|------------------------|
D :------------------------|------------------------|

end with main verse riff

Comments