Godsmack - Forgive Me Chords & Tabs

 

Forgive Me Chords & Tabs

Godsmack Chords & Tabs

Version: 3 Type: Tab

Forgive Me Tab

   
Forgive Me
-------------

song-Forgive Me
band-Godsmack              gtr 1(C,G,C,F,A,D)
album-Awake                 gtr 2(C,G,C,F,A,D)
year-2000
tabbed by-Bennhyill64

.-palm mute
/-slide
x-muted
h-hammer on

Riff 1A gtrs 1 & 2
|---------------------------0--|
|------------------------6-----|
|------------------------------|
|0h2---------------------------|
|0h2-2-2-2--0h2-2-2-2----------|
|0h2-2-2-2--0h2-2-2-2----------|
     . . .      . . .
after both gtrs so this Riff 1A
a bunch of times they go to Riff 1A(continued)

Riff 1A(continued)gtrs 1 & 2
|-----------------------------|
|-----------------------------|
|-----------------------------|
|0h2--------------------------|
|0h2-2-2-2--0h2-2-2-2---------|
|0h2-2-2-2--0h2-2-2-2---------|
     . . .      . . .

VERSE gtrs 1 & 2
|---------------------------0--|
|------------------------6-----|
|------------------------------|
|0h2---------------------------|
|0h2-2-2-2--0h2-2-2-2----------|
|0h2-2-2-2--0h2-2-2-2----------|
     . . .      . . .

Riff 1A(continued)gtrs 1 & 2
|-----------------------------|
|-----------------------------|
|-----------------------------|
|0h2--------------------------|
|0h2-2-2-2--0h2-2-2-2---------|
|0h2-2-2-2--0h2-2-2-2---------|
     . . .      . . .
there's nothing to me now an empty shell unfolded
how when we learn to pray inside our demons are laughing
how long will this go on are we a bit much stronger
do you think you can save me from living this way

CHORUS
|-------------------------------|
|-------------------------------|
|-----8-8-7---------------------|
|0----x-x-x---------------------|
|0----6-6-5----0-0-3-3-1-1------|
|0-------------0-0-3-3-1-1------|
               . . . . . .
i don't know how to love
i just know how to live
all i feel is hate
will you forgive me

Riff 1A gtrs 1 & 2
|---------------------------0--|
|------------------------6-----|
|------------------------------|
|0h2---------------------------|
|0h2-2-2-2--0h2-2-2-2----------|
|0h2-2-2-2--0h2-2-2-2----------|
     . . .      . . .
after both gtrs so this Riff 1A
a bunch of times they go to Riff 1A(continued)

Riff 1A(continued)gtrs 1 & 2
|-----------------------------|
|-----------------------------|
|-----------------------------|
|0h2--------------------------|
|0h2-2-2-2--0h2-2-2-2---------|
|0h2-2-2-2--0h2-2-2-2---------|
     . . .      . . .

VERSE 2 gtrs 1 & 2
|---------------------------0--|
|------------------------6-----|
|------------------------------|
|0h2---------------------------|
|0h2-2-2-2--0h2-2-2-2----------|
|0h2-2-2-2--0h2-2-2-2----------|
     . . .      . . .

gtrs 1 & 2
|-----------------------------|
|-----------------------------|
|-----------------------------|
|0h2--------------------------|
|0h2-2-2-2--0h2-2-2-2---------|
|0h2-2-2-2--0h2-2-2-2---------|
     . . .      . . .
for all those things i've done they keep on creeping by me
and though we've changed are ways still all our demons are laughing
how long will this go on are we a bit much stronger
i'd like to think you came into my life to stay
[ Tab from: http://www.guitartabs.cc/tabs/g/godsmack/forgive_me_tab_ver_3.html ]
CHORUS 2
|-------------------------------|
|-------------------------------|
|-----8-8-7---------------------|
|0----x-x-x---------------------|
|0----6-6-5----0-0-3-3-1-1------|
|0-------------0-0-3-3-1-1------|
               . . . . . .
i don't know how to love
i just know how to live
all i feel is hate
will you forgive me

|--------------------------------|
|--------------------------------|
|------10-10-9-------------------|
|2------x--x-x-------------------|
|2------8--8-7--2-2-5-5-3-3------|
|2--------------2-2-5-5-3-3------|
                . . . . . .

i don't know how to breathe
with you to far away

|-------------------------------|
|-------------------------------|
|-----8-8-7---------------------|
|0----x-x-x---------------------|
|0----6-6-5----0-0-3-3-1-1------|
|0-------------0-0-3-3-1-1------|
               . . . . . .
i don't know how to love
will you forgive me

Riff 1A gtrs 1 & 2
|---------------------------0--|
|------------------------6-----|
|------------------------------|
|0h2---------------------------|
|0h2-2-2-2--0h2-2-2-2----------|
|0h2-2-2-2--0h2-2-2-2----------|
     . . .      . . .
after both gtrs so this Riff 1A
a bunch of times they go to Riff 1A(continued)

CHORUS 3
|-------------------------------|
|-------------------------------|
|-----8-8-7---------------------|
|0----x-x-x---------------------|
|0----6-6-5----0-0-3-3-1-1------|
|0-------------0-0-3-3-1-1------|
               . . . . . .
i don't know how to love
i just know how to live
all i feel is hate
will you forgive me

|--------------------------------|
|--------------------------------|
|------10-10-9-------------------|
|2------x--x-x-------------------|
|2------8--8-7--2-2-5-5-3-3------|
|2--------------2-2-5-5-3-3------|
                . . . . . .

i don't know how to breathe
with you to far away

|-------------------------------|
|-------------------------------|
|-----8-8-7---------------------|
|0----x-x-x---------------------|
|0----6-6-5----0-0-3-3-1-1------|
|0-------------0-0-3-3-1-1------|
               . . . . . .
i don't know how to love

interlude 3x
|--------------------------------|
|--------------------------------|
|--------------------------------|
|6-------------------------------|
|6--0-0-6-0-0-3-0----------------|
|---0-0-6-0-0-3-0----------------|
 
VERSE 3
|------------------------------------|
|------------------------------------|
|------------------------------------|
|6-6-6-------------------------------|
|6-6-6-0-0-0-6-6-6-0-0-0-3-3-0-0-----|
|------0-0-0-6-6-6-0-0-0-3-3-0-0-----|
 . . . . . . . . . . . . . . . .
past lives i've lived uncontrolled by sacred
you've finally seen all thats left of me

interlude 3x
|--------------------------------|
|--------------------------------|
|--------------------------------|
|6-------------------------------|
|6--0-0-6-0-0-3-0----------------|
|---0-0-6-0-0-3-0----------------|
 
VERSE 3
|------------------------------------|
|------------------------------------|
|------------------------------------|
|6-6-6-------------------------------|
|6-6-6-0-0-0-6-6-6-0-0-0-3-3-0-0-----|
|------0-0-0-6-6-6-0-0-0-3-3-0-0-----|
 . . . . . . . . . . . . . . . .
so hard to feel so hard to breathe
will you forgive me will you forgive...

interlude 
|--------------------------------|
|--------------------------------|
|--------------------------------|
|6-------------------------------|
|6--0-0-6-0-0-3-0----------------|
|---0-0-6-0-0-3-0----------------|
me

then just do the interlude some odd #
of times then you're done. ENJOY!!!!!