Godsmack - Dead And Broken Chords & Tabs

 

Dead And Broken Chords & Tabs

Godsmack Chords & Tabs

Version: 1 Type: Tab 0 ratings
1 star 2 stars 3 stars 4 stars 5 stars
comments

Dead And Broken Tab

   
Intro:p.1      tuning drop c:  c g c f a d

This tab is pretty acurate id say if u like it send me an email at
forgravy@hotmail.com This is my first time tabbing. halla

---------------------------------------------------------------------
---------------------------------------------------------------------
---------------------------------------------------------------------
---------------------------------------------------------------------
---------------------------------------------------------------------
-3/12-000-13-00-15-0-13-00-12-0-10--12-000-13-00-15-0-13-00-12-0-10^-

Intro:p.2
---------------------------------------------------------------------
---------------------------------------------------------------------
---------------------------------------------------------------------
---------------------------------------------------------------------
---------------------------------------------------------------------
-12-000-13-00-15-0-13-00-12-0-10--12-000-13-00-15-0-13-00-12-0-10^---

Fill.1
---------------------------------
---------------------------------
-7-7-7-7-7-7---5--5-5------------
-5-5-5-5-5-5---3--3-3------------
-5-5-5-5-5-5---3--3-3------------
-5-5-5-5-5-5---3--3-3------------

                  
verse:p.1
---------------------------------
---------------------------------
-----------------------------7---
--------------------------6--6---
----0-0--0-0--0-0--0-0--5----5---
----0-0--0-0--0-0--0-0-----------

Fill 2
---------------------------------
---------------------------------
---------------------------------
-6-6-6-6-6-6-6-------------------
-6-6-6-6-6-6-6-------------------
-6-6-6-6-6-6-6-------------------
[ Tab from: http://www.guitartabs.cc/tabs/g/godsmack/dead_and_broken_tab.html ]
Verse: p.2
---------------------------------
---------------------------------
--------------------------7------
-----------------------6--6------
--0-0-0--0-0--0-0-0--5----5------
--0-0-0--0-0--0-0-0--------------

Chorus:p.2
--------------------------------------------------------------------------------
--2-------2---------------------------------------------------------------------
--3---8---3---5-----------------------------------------------------------------
--0---6---0---3-----------------------------------------------------------------
--0---6---0---3-----------------------------------------------------------------
--0---6---0---3/-12-000-13-00-15-0-13-00-12-0-10--12-000-13-00-15-0-13-00-12-0-10

Fill:3
------------------------------------- ------------------------------------
------------------------------------- ------------------------------------
-7-------10-------------------------- ------------------------------------
-5-------8--------------------------- ------------------------------------
-5-------8--------------------x5----- --------------x5--------------------
-5-------8-----------0-10-12-0------- ----0-10-12-0------13131313---101010
                     1st and 3Rd time                    ----2nd time-----

Wah-fill
--------------------------15----------------------------------
--------------------------15----------------------------------
--7-----8-----5-----5-----13----------------------------------
--x-----x-----x-----x-----12----------------------------------
--5-----6-----3-----7-----11----------------------------------
--------------------------------------------------------------
  -------wah fill-----------

Ending:
----------------------------------------------
----------------------------------------------
----------------------------------------------
----------------------------------------------
--0-0-0----0-0----0-0-0-----------------------
--0-0-0----0-0----0-0-0-----------------------

Intro
Fill 1
Intro
Fill 1
Intro
Verse p.1
Fill 2
Verse p.2
Fill 2
Chorus
Wah fill
Verse p.1
Fill 2
Verse p.2
Fill 2
Chorus
Fill 3
wah fill
Chorus
Ending
Comments