Godsmack - Changes Chords & Tabs

 

Changes Chords & Tabs

Godsmack Chords & Tabs

Version: 1 Type: Bass Tab 0 ratings
1 star 2 stars 3 stars 4 stars 5 stars
comments

Changes Bass Tab

Band- Godsmack
Song- Changes
Tuning- Drop D

Intro

G|---------------------|---------------------|-----------------|----------------|-
D|---------------------|---------------------|-----------------|----------------|-
A|---------------------|---------------------|-----------------|----------------|-
D|0-10-12-0-10-12-0-10-|12-0-10-12-0-10-12-8-|--0-8-0-8-10-0-7-|8-0-5-7-0-3-5-5-|-

-|---------------------|----------------------|------------------|----------------| x2
-|---------------------|----------------------|------------------|----------------|
-|---------------------|----------------------|------------------|----------------|
-|0-10-12-0-10-12-0-10-|12-0-10-12-0-10-12-10-|8-0-8-0-8-10-0-7~-|--0-5-7---3-5-5-|

G|--------|-------------|
D|--------|-------------|
A|--------|---6-6-6-6-6-|
D|0~------|-------------|


Verse

G|---------------|---------------|------------------|----------| x3
D|---------------|---------------|------------------|----------|
A|-------------5-|-5---5-5-------|------------------|------6~--|
D|0--6-0-0-6-0---|---6-----3-6-3-|0-0-6-0-0-6--0--0-|6-0-0-----|

G|---------------|---------------|-----------------------------|
D|---------------|---------------|-----------------------------|
A|-------------5-|-5----5-5-5----|---------------------333--33-|
D|0--6-0-0-6-0---|---6--------8--|8-8-8-8-8\3--3-3-3-3---------|


chorus

G|----------------------|---------------------|-----------------|----------------|
D|----------------------|---------------------|-----------------|----------------|
A|----------------------|---------------------|-----------------|----------------|
D|12-10-12-0-10-12-0-10-|12-0-10-12-0-10-12-8-|--0-8-0-8-10-0-7-|8-0-5-7-0-3-5-5-|

G|---------------------|----------------------|--------|----------------|
D|---------------------|----------------------|--------|----------------|
A|---------------------|----------------------|--------|----------------|
D|0-10-12-0-10-12-0-10-|12-0-10-12-0-10-12-10-|8~------|7~------3-5-5~--|


Bridge

G|---------------|-------------|------------------|--------| 
D|---------------|-------------|------------------|--------|
A|-------------5-|-5---5-5-----|------------------|--------|
D|0--6-0-0-6-0---|---6-----3~--|0-0-6-0-0-6--0--0-|6-------|


Verse

G|---------------|---------------|------------------|----------|- 
D|---------------|---------------|------------------|----------|-
A|-------------5-|-5---5-5-------|------------------|------6~--|-
D|0--6-0-0-6-0---|---6-----3-6-3-|0-0-6-0-0-6--0--0-|6-0-0-----|-

-|---------------|---------------|-----------------------------| x2
-|---------------|---------------|-----------------------------|
-|-------------5-|-5----5-5-5----|---------------------333--33-|
-|0--6-0-0-6-0---|---6--------8--|8-8-8-8-8\3--3-3-3-3---------|


Chorus

G|----------------------|---------------------|-----------------|----------------|
D|----------------------|---------------------|-----------------|----------------|
A|----------------------|---------------------|-----------------|----------------|
D|12-10-12-0-10-12-0-10-|12-0-10-12-0-10-12-8-|--0-8-0-8-10-0-7-|8-0-5-7-0-3-5-5-|

G|----------------------|----------------------|------------------|----------------| 
D|----------------------|----------------------|------------------|----------------|
A|----------------------|----------------------|------------------|----------------|
D|12-10-12-0-10-12-0-10-|12-0-10-12-0-10-12-10-|8-0-8-0-8-10-0-7~-|--0-5-7---3-5-5-|
[ Tab from: http://www.guitartabs.cc/tabs/g/godsmack/changes_btab.html ]
G|----------------------|---------------------|-----------------|----------------|
D|----------------------|---------------------|-----------------|----------------|
A|----------------------|---------------------|-----------------|----------------|
D|12-10-12-0-10-12-0-10-|12-0-10-12-0-10-12-8-|--0-8-0-8-10-0-7-|8-0-5-7-0-3-5-5-|

G|---------------------|----------------------|------------------|----------------| 
D|---------------------|----------------------|------------------|----------------|
A|---------------------|----------------------|------------------|----------------|
D|0-10-12-0-10-12-0-10-|12-0-10-12-0-10-12-10-|8-0-8-0-8-10-0-7~-|--0-5-7---3-5-5-|


Interlude
					      	
G|--------|------------| |-------------|--------------|-------------|------------| x2
D|--------|--/12-10----| |-------------|------------6-|-------------|------------|
A|--------|---------12-| |-------------|----------5---|-------------|------------|
D|0~------|------------| |0--0-/6~---0-|-0-0--0-6-----|0--0-/6~---0-|-0-0--6--3--|


Guitar Solo

G|-----------------------|------------------------------|
D|-----------------------|------------------------------|
A|-----------------------|------------------------------|
D|5--5-3--5--5-5-5-8-8-8-|5--5-5-5-3--5-5-5-5-5-8-8-8-8-|

G|-----------------------|------------------------------|
D|-----------------------|------------------------------|
A|-----------------------|------------------------------|
D|0--0-3--0--0-0-0-1-1-1-|0--0-0-0-3--0-0-0-0-0-1-1-1-1-|

G|-----------------------|------------------------------|
D|-----------------------|------------------------------|
A|-----------------------|------------------------------|
D|5--5-3--5--5-5-5-8-8-8-|5--5-5-5-3--5-5-5-5-5-8-8-8-8-|

G|-----------------------|------------------------|
D|-----------------------|------------------------|
A|-----------------------|--------------------6\--|
D|0--0-3--0--0-0-0-1-1-1-|0-0-0-0-3--0--0-0-0-----|


Bridge

G|---------------------|---------------------|-----------------|----------------|
D|---------------------|---------------------|-----------------|----------------|
A|---------------------|---------------------|-----------------|----------------|
D|0-10-12-0-10-12-0-10-|12-0-10-12-0-10-12-8-|--0-8-0-8-10-0-7-|8-0-5-7-0-3-5-5-|

G|---------------------|----------------------|--------|--------|
D|---------------------|----------------------|--------|--------|
A|---------------------|----------------------|--------|--------|
D|0-10-12-0-10-12-0-10-|12-0-10-12-0-10-12-10-|8~------|7~------|


Chorus

G|---------------------|---------------------|-----------------|----------------|-
D|---------------------|---------------------|-----------------|----------------|-
A|---------------------|---------------------|-----------------|----------------|-
D|0-10-12-0-10-12-0-10-|12-0-10-12-0-10-12-8-|--0-8-0-8-10-0-7-|8-0-5-7-0-3-5-5-|-

-|---------------------|----------------------|------------------|----------------| x2 
-|---------------------|----------------------|------------------|----------------|
-|---------------------|----------------------|------------------|----------------|
-|0-10-12-0-10-12-0-10-|12-0-10-12-0-10-12-10-|8-0-8-0-8-10-0-7~-|--0-5-7---3-5-5-|


Outro

G|---------------------|---------------------|-----------------|----------------|
D|---------------------|---------------------|-----------------|----------------|
A|---------------------|---------------------|-----------------|----------------|
D|0-10-12-0-10-12-0-10-|12-0-10-12-0-10-12-8-|--0-8-0-8-10-0-7-|8-0-5-7-0-3-5-5-|

G|---------------------|----------------------|--------|--------|
D|---------------------|----------------------|--------|--------|
A|---------------------|----------------------|--------|--------|
D|0-10-12-0-10-12-0-10-|12-0-10-12-0-10-12-10-|8~------|7~------|

G|-------------------| x2 |------------------|-----------------------|
D|-----------------6-|    |------------------|-----------------6-----|
A|---------------5---|    |------------------|---------------5-------|
D|0~--6--0~--0-6-----|    |0~--6--0~--0-6-6--|0~--6--0~--0-6-----6~--|
Comments