Godsmack - Bad Magick Chords & Tabs

 

Bad Magick Chords & Tabs

Godsmack Chords & Tabs

Version: 2 Type: Tab 0 ratings
1 star 2 stars 3 stars 4 stars 5 stars
comments

Bad Magick Tab

Godsmack- Bad Magick
tabbed by: me

intro x4
E---------------------------------------------------------------
B---------------------------------------------------------------
G--5-8-5--111111111111-121212121212-----------------------------
D--5-8-5--x-x-x-x-x-x---x-x-x-x-x-x-----------------------------
A--3-6-3--9-9-9-9-9-9--101010101010-----------------------------
E---------------------------------------------------------------

verse x2
E---------------------------------------------------------------
B---------------------------------------------------------------
G----------------------------6----------------------------------
D--3-6-3--3-3-4--3-6-3-x-x-x-6--3-6-3--3-3-4--3-6-3-------------
A--3-6-3--3-3-4--3-6-3-x-x-x-6--3-6-3--3-3-4--3-6-3-------------
E--1-4-1--1-1-2--1-4-1-x-x-x----1-4-1--1-1-2--1-4-1-------------

chorus x4
E---------------------------------------------------------------
B---------------------------------------------------------------
G--5-8-5--111111111111-121212121212-----------------------------
D--5-8-5--x-x-x-x-x-x---x-x-x-x-x-x-----------------------------
A--3-6-3--9-9-9-9-9-9--101010101010-----------------------------
E---------------------------------------------------------------

after chorus 1
E-----------------
B-----------------
G-----------------
D--3-3-3--2-------
A--3-3-3--2-------
E--1-1-1--0-------

verse x2
E---------------------------------------------------------------
B---------------------------------------------------------------
G----------------------------6----------------------------------
D--3-6-3--3-3-4--3-6-3-x-x-x-6--3-6-3--3-3-4--3-6-3-------------
A--3-6-3--3-3-4--3-6-3-x-x-x-6--3-6-3--3-3-4--3-6-3-------------
E--1-4-1--1-1-2--1-4-1-x-x-x----1-4-1--1-1-2--1-4-1-------------

chorus x4
E---------------------------------------------------------------
B---------------------------------------------------------------
G--5-8-5--111111111111-121212121212-----------------------------
D--5-8-5--x-x-x-x-x-x---x-x-x-x-x-x-----------------------------
A--3-6-3--9-9-9-9-9-9--101010101010-----------------------------
E---------------------------------------------------------------

after chorus 2
E-----------------
B-----------------
G----------------- let ring
D----3------------
A----3------------
E----1------------

bridge- palm muted
(gettin’ back, back on track....)
E--------------------------------------------------------------------
B--------------------------------------------------------------------
G-------------------------------------------------------------------- x2
D--------------------------------------------------------------------
A--------------------------------------------------------------------
E--2-2-0-2--2-2-0-2--2-2-0-2----2-2-0-2--2-2-0-2--2-2-0-2--2-2-0-2---
[ Tab from: http://www.guitartabs.cc/tabs/g/godsmack/bad_magick_tab_ver_2.html ]
(GETTIN BACK, BACK ON TRACK!!..)
E---------------------------------------
B---------------------------------------
G--------------------------------------- x4
D---------------------------------------
A--2-2-0-2--2-2-0-2--2-2-0-2--2-2-0-2---
E--2-2-0-2--2-2-0-2--2-2-0-2--2-2-0-2---

(gettin’ back, back on track....)
E--------------------------------------------------------------------
B--------------------------------------------------------------------
G-------------------------------------------------------------------- x2
D--------------------------------------------------------------------
A--------------------------------------------------------------------
E--2-2-0-2--2-2-0-2--2-2-0-2----2-2-0-2--2-2-0-2--2-2-0-2--2-2-0-2---

(BACK BACK, BACK ON TRACK!!..)
E---------------------------------------
B---------------------------------------
G--------------------------------------- x4
D---------------------------------------
A--2-2-0-2--2-2-0-2--2-2-0-2--2-2-0-2---
E--2-2-0-2--2-2-0-2--2-2-0-2--2-2-0-2---

E-------------------------------------------
B-------------------------------------------
G-------------------------------------------
D-------------------------------------------
A--2-2-0-2--2-2-0-2--2-2-0-2--5-5-5-5-5-5---
E--2-2-0-2--2-2-0-2--2-2-0-2--5-5-5-5-5-5---

solo
E--------------------------------------------------------------------------
B--------------------------------------------------------------------------
G--16-16-16-15b-16---------------------------------------------------------
D-----------------1313131313131314141414141413131313h14141414131313141414--
A--------------------------------------------------------------------------
E--------------------------------------------------------------------------

E------------------------------------------------------------13h15-13p12---
B-------------------17b-17-17-17b-17p16h17p14h15h16p15p14p12---------------
G--------------------------------------------------------------------------
D--1313131414141314--------------------------------------------------------
A--------------------------------------------------------------------------
E--------------------------------------------------------------------------

E--19-19-19b-19---
B-----------------
G-----------------
D-----------------
A-----------------
E-----------------

chorus x4
E---------------------------------------------------------------
B---------------------------------------------------------------
G--5-8-5--111111111111-121212121212-----------------------------
D--5-8-5--x-x-x-x-x-x---x-x-x-x-x-x-----------------------------
A--3-6-3--9-9-9-9-9-9--101010101010-----------------------------
E---------------------------------------------------------------

outro
(gettin’ back, back on track....)
E--------------------------------------------------------------------
B--------------------------------------------------------------------
G-------------------------------------------------------------------- x2
D--------------------------------------------------------------------
A--------------------------------------------------------------------
E--2-2-0-2--2-2-0-2--2-2-0-2----2-2-0-2--2-2-0-2--2-2-0-2--2-2-0-2---
Comments