Godsmack - Bad Magick Chords & Tabs

 

Bad Magick Chords & Tabs

Godsmack Chords & Tabs

Version: 1 Type: Bass Tab 0 ratings
1 star 2 stars 3 stars 4 stars 5 stars
comments

Bad Magick Bass Tab

   
Bass Tablature

Band: Godsmack
Song: Bad Magick
Track: 04
Album: Awake
Tabbed By: Tyler Nance (killpeople@netzero.net)
This song was tabbed at 2:50 A.M. on November 01th, 2000

Tuning: Dropped-D ( D A D G )

Use your fingers, not a pick on this song.
Use clean tone, no effects.

Intro/Chorus
Repeat Serveral Times
G|--------------------------------------------------------------
D|--------------------------------------------------------------
A|--------4-4-4-4-4-4-4-4-4-4-4-4-------4-4-4-5-4-4-4-6-4-4-4-4-
D|--5-6-4-------------------------5-6-4-------------------------

Verse
Repeat Serveral Times
G|--------------------
D|--------------------
A|--------------------
D|--3-4-2p-3-4~-3-4-2p

Bridge After First Chorus
Repeat Serveral Times
G|----------
D|----------
A|----------
D|--2-2-2-4~

Bridge After Second Chorus (Part 1)
Repeat Serveral Times
G|---------------
D|---------------
A|---------------
D|--[2~]-2h2h2h3-
[ Tab from: http://www.guitartabs.cc/tabs/g/godsmack/bad_magick_btab.html ]
Bridge After Second Chorus(Part2)
Repeat Serveral Times
G|-------------------------------
D|-------------------------------
A|-------------------------------
D|--2-2-2-3-2-2-2-3-2-2-2-3-2/(5)

Bridge After Second Chorus (Part3)
G|---------------------------------------------------------------------------D|---------------------------------------------------------------------------A|---------------------------------------------------------------------------D|--1/(3)-2-2-2-3-2-2-2-3-2-2-2-3-2/(7)-2-2-2-3-2-2-2-3-2-2-2-3-5\(1)-2-2-2-3-2-2-2-3-2-2-2-3-2/(4)-p2p2p2p2p2-5-5-5-5-5-5

Intro - Play Intro/Chorus Line
Verse - Play Verse Line
Chorus - Play Intro/Chorus Line
Bridge - Play First Chorus Bridge Line
Verse - Play Verse Line
Chorus - Play Chorus/Intro Line
Bridge - Play Bridge After Second Chorus Part 1, then Part 2, then Part 1, then Part 3
Solo - Play Verse Line
Chorus - Duh
Bridge - Play Bridge After Second Chorus Part 1

Tablature Explaination:
 ~ = Hold note
 h = Hammer on, quick progression
 p = Pause, do not let not ring
 / = Slide up fretboard
 \ = Slide down fretboard
 ( ) = These are use to show notes to slide up or down to
 [ ] = only play the note(s) encased by these the first time you play the line 

If you hate trendy stuff, check out my website http://www.crosswinds.net/~rd5k

Comments