Godsmack - Awake Chords & Tabs

 

Awake Chords & Tabs

Godsmack Chords & Tabs

Version: 6 Type: Tab 0 ratings
1 star 2 stars 3 stars 4 stars 5 stars
comments

Awake Tab

D-----------------------------------------------------------------------------------------
A-----------------------------------------------------------------------------------------
F-----------------------------------------------------------------------------------------
C----------7-7-8-8-8-8-0-0-0-0--7-7-8-8-8-8-0-0-0-0--7-7-8-8-8-8-0-0-0-0--7-7-10-10-10-10-
G-0-0-0-0--5-5-6-6-6-6-0-0-0-0--5-5-6-6-6-6-0-0-0-0--5-5-6-6-6-6-0-0-0-0--5-5-8--8--8--8--
C-0-0-0-0--------------0-0-0-0--------------0-0-0-0--------------0-0-0-0------------------

1st Guitar
D------------------------------------------------------------------}
A------------------------------------------------------------------}
F---------------------------------------------------------------10-}
C-0-0-0-0--7-7-8-8-8-8-0-0-0-0--7-7-8-8-8-8-0-0-0--7-7-8-8-8-8/-9--}
G-0-0-0-0--5-5-6-6-6-6-0-0-0-0--5-5-6-6-6-6-0-0-0--5-5-6-6-6-6/-8--}
C-0-0-0-0--------------0-0-0-0--------------0-0-0------------------}
[ Tab from: http://www.guitartabs.cc/tabs/g/godsmack/awake_tab_ver_6.html ]
Comments