Godsmack - Awake Chords & Tabs

 

Awake Chords & Tabs

Godsmack Chords & Tabs

Version: 4 Type: Tab 0 ratings
1 star 2 stars 3 stars 4 stars 5 stars
comments

Awake Tab

godsmack
awake

intro:

E|-----------------------
B|-----------------------
G|-----------------------
D|--7-7-7--9-9-9--5-5-5--
A|--5-5-5--9-9-9--5-5-5--
D|---------7-7-7--3-3-3--     repeat a few times



E|---------------     E|-------------------
B|---------------     B|-------------------
G|---------------     G|-------------------
D|--0--0-0-00----     D|--0--0-0-00--/14---
A|--0--0-0-00----     A|--0--0-0-00--/12---
D|--0--0-0-00----     D|--0--0-0-00--------
pm  .  . . ..             .  . . ..


then this kicks in
[ Tab from: http://www.guitartabs.cc/tabs/g/godsmack/awake_tab_ver_4.html ]
E|---------------------------
B|---------------------------
G|---------------------------
D|--4--4-4--5--5-5--6-6-6----
A|--4--4-4--3--3-3--4-4-4----
D|--2--2-2-------------------  

repeat 3 times then:

E|-----------------------------
B|-----------------------------
G|-----------------------------
D|--4--4-4--7--7-7---10-10-10--
A|--4--4-4--5--5-5---8--8--8---
D|--2--2-2---------------------

 main riff:
"Wait another second, can't you see..."


E|------------------- 
B|-------------------
G|-------------------
D|-----------3--3----
A|--0--0--0--1--3----
D|--0--0--0-----1----
Comments