Godsmack - Awake Chords & Tabs

 

Awake Chords & Tabs

Godsmack Chords & Tabs

Version: 2 Type: Tab 1 rating
1 star 2 stars 3 stars 4 stars 5 stars
comments

Awake Tab

Artist: Godsmack
Song:   Awake
Date:   1/22/01

Tabbed by: Boris Zivkovic (sexy_devilboy@hotmail.com)

Please email me if you have any questions or comments or just things that I 
totally screwed up.

x = Left Hand Mute

Figure 1. Intro & Chorus

Gtr.1
E|--------------------------------------------------||
B|--------------------------------------------------||
G|--------------------------------------------------||  4x
D|-----5-5-5-5-5------------------------------------||
A|-----3-3-3-3-3----6-6----5-5-5--------------------||
E|------------------4-4----3-3-3--------------------||

Gtr.2 (comes in after Gtr.1 has played twice)
E|--------------------------------------------------||
B|--------------------------------------------------||
G|-----5-5-5-5--5-5-5-5---------6-6-6-6-------------||  2x
D|-----x-x-x-x--x-x-x-x---6-6---x-x-x-x-------------||
A|-----3-3-3-3--3-3-3-3---x-x---4-4-4-4-------------||
E|------------------------4-4-----------------------||

Figure 2.

E|--------------------------------------------------||
B|--------------------------------------------------||
G|--------------------------------------------------||
D|----------------------------------------------~3--||
A|---1--1-1-1----1--1-1-1----1--1-1-1----1--1-1-----||
E|---1--1-1-1----1--1-1-1----1--1-1-1----1--1-1-----||

     P.M....     P.M....     P.M....     P.M..|

Figure 3.
E|-----------------------------------------||
B|-----------------------------------------||
G|---------------5-5-5---6-6-6-6-----------||  3x
D|-----5-5-x-5---x-x-x---x-x-x-x-----------||
A|-----3-3-x-3---3-3-3---4-4-4-4-----------||
E|-----3-3-x-3-----------------------------||

E|-----------------------------------------||
B|-----------------------------------------||
G|---------------5-5-5---8-8-8-8-----------||
D|-----5-5-x-5---x-x-x---x-x-x-x-----------||
A|-----3-3-x-3---3-3-3---6-6-6-6-----------||
E|-----3-3-x-3-----------------------------||

  then this again...
E|-----------------------------------------||
B|-----------------------------------------||
G|---------------5-5-5---6-6-6-6-----------||  3x
D|-----5-5-x-5---x-x-x---x-x-x-x-----------||
A|-----3-3-x-3---3-3-3---4-4-4-4-----------||
E|-----3-3-x-3-----------------------------||


E|-----------------------------------------||
B|-----------------------------------------||
G|---------------5-5-5---8-----------------||
D|-----5-5-x-5---x-x-x---x-----------------||
A|-----3-3-x-3---3-3-3---6-----------------||
E|-----3-3-x-3-----------------------------||
         let ring...

Fig 4. Verse
[ Tab from: http://www.guitartabs.cc/tabs/g/godsmack/awake_tab_ver_2.html ]
E|--------------------------------------------------||
B|--------------------------------------------------||
G|--------------------------------------------------||
D|-----5--5----5--5----5--5-------5-----------------|| 2x
A|-----3--3----3--3----3--3-------3---6---5---------||
E|-----3--3----3--3----3--3-----------4---3---------||

Fig 5.

E|-----------------------------------------||
B|-----------------------------------------||
G|-----------------------------------------||
D|-----------------------------------------|| 4x
A|-----3-3-3---3-3-3-3---3-3---------------||
E|-----3-3-3---3-3-3-3---3-3---------------||
        louder...

E|-----------------------------------------||
B|-----------------------------------------||
G|-----------------------------------------||
D|-----------------------------------------|| 16x (I think)
A|-----3-3-3---3-3-3-3---3-3---------------||
E|-----3-3-3---3-3-3-3---3-3---------------||
       P.M.................................
Fig 6.
E|-----------------------------------------||
B|-----------------------------------------||
G|-----------------------------------------||
D|-----6-----6------6-6------6-------------||
A|-----4-----4------4-4------4-------------||
E|-----4-----4------4-4------4-------------||


E|-----------------------------------------||
B|-----------------------------------------||
G|-----------------------------------------||
D|-----------------------------------------|| 2x
A|-----0-0-0---0-0-0-0---0-0---------------||
E|-----0-0-0---0-0-0-0---0-0---------------||
       P.M.................................


E|--------------------------------------||
B|--------------------------------------||
G|--------------------------------------||
D|-----6-----6------------6-------------||
A|-----4-----4------------4-------------||
E|-----4-----4------------4-------------||

Fig.7
E|-------------------||
B|-------------------||
G|-------------------||
D|-----6-------------|| 15x (I think)
A|-----4-------------||
E|-----4-------------||
       P.M.

E|-----------------------------------------||
B|-----------------------------------------||
G|-----------------------------------------||
D|-----------------------------------------|| 3x
A|-----3-3-3---3-3-3-3---3-3---------------||
E|-----3-3-3---3-3-3-3---3-3---------------||
        get louder...

then...
E|-----------------------------------------||
B|-----------------------------------------||
G|-----------------------------------------||
D|-----------------------------~3----------|| 4x
A|-----3-3-3---3-3-3-3---3-3---------------||
E|-----3-3-3---3-3-3-3---3-3---------------||
             |(with wah)

Solo ???dunno


All of the other stuff that I left out like the whole end part after the 
solo
is a varitation or the same thing as other figures already tabbed out. Email
me if you know the solo, I could figure it out but I'm too lazy.
Comments