Godsmack - Awake Chords & Tabs

 

Awake Chords & Tabs

Godsmack Chords & Tabs

Version: 2 Type: Bass Tab 0 ratings
1 star 2 stars 3 stars 4 stars 5 stars
comments

Awake Bass Tab

   
Song: Awake
Artist: Godsmack
Album: Awake
Released: 10-31-00
Transcribed by: "Joe Black" From The Bronx!

Tuning for 4 string: C-G-C-F

This song kicks serious butt!


Part (a)  4 times
F:-----------------------------------------------------------|
C:-----------------------------------------------------------|
G:------------------------------1----1--1--------------------|
C:-0----0--0--0----0--0--0--0---------------1----1--1--1--1--|


Part (b)  4 times
F:---------------|
C:---------------|
G:---------------|
C:-0----0--0--0--|



F:-----|
C:-----|
G:-----|
C:--2--|



Part (c)  3 times
F:----------------------------------|
C:----------------------------------|
G:-----------------5----6--6--6--6--|
C:-0----0--0--0---------------------|


Part (d)
F:----------------------------------|
C:----------------------------------|
G:-----------------5----8--8--8--8--|
C:-0----0--0--0---------------------|



Play Part (c) 2 times


Part (e) 
F:----------------------------------|
C:----------------------------------|
G:-----------------5----6--6--6--8~~|
C:-0----0--0--0---------------------|


Part (f)   2 times
F:------------------------------------------------|
C:------------------------------------------------|
G:-----------------------------------------1\6/1--|
C:--0----0------0----0------0----0------1---------|



Play Part (a) 4 times

Play Part (b) 4 times



F:-----|
C:-----|
G:-----|
C:--2--|



Play Part (c) 3 times
Play Part (d) 1 time
Play Part (c) 2 times



F:------------------------------------------|
C:------------------------------------------|
G:-----------------5----6--6--6--8----8--8--|
C:-0----0--0--0-----------------------------|



Play Part (f) 2 times

Play Part (a) 7 times


F:-----|
C:-----|
G:-----|
C:--0--|


[ Tab from: http://www.guitartabs.cc/tabs/g/godsmack/awake_btab_ver_2.html ]
Part (g)  17 times.
F:----------------------------------|
C:----------------------------------|
G:----------------------------------|
C:-0--0--0--0--0--0--0--0--0--0--0--|

Part (h)
F:--------------------------------------------------|
C:------------------------------1----1--1-----------|
G:--------------------6-----------------------------|
C:--1----1----1--1\6-------1------------------1--1--|



Play Part (g) 1 time



Part (i)  Play 2 times
F:------------------------|
C:------------------------|
G:--------------------6---|
C:--1----1----1--1\6------|


Part (j)
F:--------------------------------------------------|
C:--------------------------------------------------|
G:--------------------------------------------------|
C:--5--5--5--5--5--5--5--5--5--5--5--5--5--5--5--0--|


Play Part (g) 8 times

Play Part (i) 2 times

Play Part (g) 2 times

Play Part (i) 2 times


F:--------------------------------------------------|
C:--------------------------------------------------|
G:--------------------------------------------------|
C:--5--5--5--5--5--5--5--5--5--5--5--5--5--5--5-----|


Play Part (a) 8 times

Play Part (g) 4 times
The End!

####################################################
{{{  Lyrics  }}}

Wait another minute - Can't you see 
what this pain has fuckin done to me
I'm alive and still kickin - What you see 
I can see and maybe, you'll think before you speak.

Chorus
I'm alive, for you - I'm awake, because of you.
I'm alive, told you - I'm awake, swallowing you.

Take another second, turn your back on me and
make believe - that your always happy.
It's safe to say, your never alive 
A big part of you has died and by the way
I hope your satisfied.

Chorus 2 times


Tearin it back unveiling me
I'm takin a step back so I can breathe
Hear the silence about to break
Fear resistance when I'm awake
(Repeats again with different timing)

Chorus 2 times


  ____    _____
 (    `--'  .-'`                T_T_T_T_
 |{| O  O  ||||||||||||||||||||[o o o o/
 (__,--.____',                  `--`--'

Comments