Godsmack - Awake Chords & Tabs

 

Awake Chords & Tabs

Godsmack Chords & Tabs

Version: 1 Type: Bass Tab 0 ratings
1 star 2 stars 3 stars 4 stars 5 stars
comments

Awake Bass Tab

   
Updated: 11-12-00

Song: Awake
Artist: Godsmack
Album: Awake
Released: 10-31-00
Transcribed by: "Joe Black" From The Bronx!

Tuning for 4 string: C-G-C-F

This song kicks serious butt!


Part (a)  4 times
F:-----------------------------------------------------------|
C:-----------------------------------------------------------|
G:------------------------------1----1--1--------------------|
C:-0----0--0--0----0--0--0--0---------------1----1--1--1--1--|


Part (b)  4 times
F:---------------|
C:---------------|
G:---------------|
C:-0----0--0--0--|



F:-----|
C:-----|
G:-----|
C:--2--|



Part (c)  3 times
F:----------------------------------|
C:----------------------------------|
G:-----------------5----6--6--6--6--|
C:-0----0--0--0---------------------|


Part (d)
F:----------------------------------|
C:----------------------------------|
G:-----------------5----8--8--8--8--|
C:-0----0--0--0---------------------|



Play Part (c) 2 times


Part (e) 
F:----------------------------------|
C:----------------------------------|
G:-----------------5----6--6--6--8~~|
C:-0----0--0--0---------------------|


Part (f)   2 times
F:------------------------------------------------------|
C:------------------------------------------------------|
G:-----------------------------------------1\6----------|
C:--0----0------0----0------0----0------1--------6\(8)--|



Play Part (a) 4 times

Play Part (b) 4 times



F:-----|
C:-----|
G:-----|
C:--2--|
[ Tab from: http://www.guitartabs.cc/tabs/g/godsmack/awake_btab.html ]


Play Part (c) 3 times
Play Part (d) 1 time
Play Part (c) 2 times



F:------------------------------------------|
C:------------------------------------------|
G:-----------------5----6--6--6--8----8--8--|
C:-0----0--0--0-----------------------------|



Play Part (f) 2 times

Play Part (a) 7 times


F:-----|
C:-----|
G:-----|
C:--0--|



Part (g)  17 times.
F:--------------------------------------|
C:--------------------------------------|
G:--------------------------------------|
C:-0--0--0--0----0--0--0--0--0----0--0--|

Part (h)
F:--------------------------------------------------|
C:------------------------------1----1--1-----------|
G:--------------------6-----------------------------|
C:--1----1----1--1\6-------1------------------1--1--|



Play Part (g) 1 time



Part (i)  Play 2 times
F:------------------------|
C:------------------------|
G:--------------------6---|
C:--1----1----1--1\6------|


Part (j)
F:--------------------------------------------------|
C:--------------------------------------------------|
G:--------------------------------------------------|
C:--5--5--5--5--5--5--5--5--5--5--5--5--5--5--5--0--|


Play Part (g) 8 times

Play Part (i) 2 times

Play Part (g) 2 times

Play Part (i) 2 times


F:--------------------------------------------------|
C:--------------------------------------------------|
G:--------------------------------------------------|
C:--5--5--5--5--5--5--5--5--5--5--5--5--5--5--5-----|


Play Part (a) 8 times

Play Part (g) 4 times
The End!

Comments