God Machine - Life Song Chords & Tabs

 

Life Song Chords & Tabs

God Machine Chords & Tabs

Version: 1 Type: Tab 0 ratings
1 star 2 stars 3 stars 4 stars 5 stars
comments

Life Song Tab

   
#----------------------------------PLEASE NOTE---------------------------------#
#This file is the author's own work and represents their interpretation of the #
#song. You may only use this file for private study, scholarship, or research. #
#------------------------------------------------------------------------------#

The God Machine - The life song
===============================
Tabbed by Dries Neyrinck (godmachinetablature@eudoramail.com)
For more God Machine tabs visit http://www.geocities.com/godmachinetablature

Oh my goodness! This is one of my GM fav's. Very interesting sound, desperate as the desert!
This song is based on the Dm chord.
For accurate tuning you should tune up your strings 1/4 of a semitone. Soon I'll post a little MP3 with the correct tuning recorded!

Dm	Dsus4	Dsus2
1	3	0
3	3	3	
2	2	2
0	0	0
0	0	0
0	0	0

Intro
-----
(With some delay effect on it)
Dm (let ring) 
Dsus4 / Dsus4 / Dsus2 (let ring) 
Dsus4 / Dsus4 / Dm (let ring)
Dsus4 / Dsus4 / Dsus2 (let ring) 
Dsus4 / Dsus4 / Dm (let ring)

Verse 1
-------
Dsus4 / Dsus4 / Dsus2 (let ring) 
Dsus4 / Dsus4 / Dm (let ring)
Dsus4 / Dsus4 / Dsus2 (let ring) 
Dsus4 / Dsus4 / Dm (let ring)
Dsus4 / Dsus4 / Dsus2 (let ring) 
Dsus4 / Dsus4 / Dm (let ring)
Dsus4 / Dsus4 / Dsus2 (let ring) 
Dsus4 / Dsus4 / Dm (let ring)
[ Tab from: http://www.guitartabs.cc/tabs/g/god_machine/life_song_tab.html ]
Now the chords are played with a harder distortion, use the following riffs:

Riff A
e-0-0-0-0-0-0-0-0-0-0-----------------
B-3-3-3-3-3-3-3-3-3-3-----------------
G-2-2-2-2-2-2-2-2-2-2---let fade------
D-0-0-0-0-0-0-0-0-0-0-----------------
A-0-0-0-0-0-0-0-0-0-0-----------------
E-------------------------------------

Riff B
e-0-0-0-0-0-0-0-0-0-0---1---0---1---0-
B-3-3-3-3-3-3-3-3-3-3-----------------
G-2-2-2-2-2-2-2-2-2-2-----------------
D-0-0-0-0-0-0-0-0-0-0-----------------
A-0-0-0-0-0-0-0-0-0-0-----------------
E-------------------------------------

Riff C
e-0-0-0-0-0-0-0-0-0-0---0---3---0---3-
B-3-3-3-3-3-3-3-3-3-3-----------------
G-2-2-2-2-2-2-2-2-2-2-----------------
D-0-0-0-0-0-0-0-0-0-0-----------------
A-0-0-0-0-0-0-0-0-0-0-----------------
E-------------------------------------

Riff A:4x
Riff B
Riff C
Riff B
Riff C

Verse 2
-------
Riff A:8x
Riff B
Riff C
Riff B
Riff C

Verse 3
-------
Riff A:4x
Riff B
Riff C
Riff B
Riff C
Riff B
Riff C
Riff B
Riff C

Outro
-----
Riff D
e-0-0-0-0-0-0-1-1-0-0-----------------
B-3-3-3-3-3-3-3-3-3-3-----------------
G-2-2-2-2-2-2-2-2-2-2---let fade------
D-0-0-0-0-0-0-0-0-0-0-----------------
A-0-0-0-0-0-0-0-0-0-0-----------------
E-------------------------------------

Riff D (3x)
Comments