God Machine - Alone Chords & Tabs

 

Alone Chords & Tabs

God Machine Chords & Tabs

Version: 1 Type: Tab 0 ratings
1 star 2 stars 3 stars 4 stars 5 stars
comments

Alone Tab

   
#----------------------------------PLEASE NOTE---------------------------------#
#This file is the author's own work and represents their interpretation of the #
#song. You may only use this file for private study, scholarship, or research. #
#------------------------------------------------------------------------------#

The God Machine - Alone
=======================
Tabbed by Dries Neyrinck (godmachinetablature@eudoramail.com)
For more God Machine tabs visit http://www.geocities.com/godmachinetablature

Here's one of my most favourite GM songs. Easy to play, but what a song!

Intro
-----
Listen to the track for rhytm. Divide the bar in sixteenths and play Dsus2 and Am
  1 2 3 4 5 6 7   9 1011 . . .  16 
     Dsus2		Am
e-0-0-0-0-0-0-0---0-0-0-----------0 . . .
B-5-5-5-5-5-5-5---1-1-0-----------5 . . .
G-7-7-7-7-7-7-7---2-2-2-----------7 . . .
D-7-7-7-7-7-7-7---2-2-2-----------7 . . .
A---------------------------------- . . .
E---------------------------------- . . .

Verse
-----
Same as the intro
[ Tab from: http://www.guitartabs.cc/tabs/g/god_machine/alone_tab.html ]
2nd part of the song
--------------------
  Csus2 G Csus2 G
e---3---3---3---3-
B---3---3---3---3-
G---5---4---3---4-
D---5---5---3---5-
A---3---5---3---5-
E---3---3---3---3-

Followed by the following figure

E-0--0-------4--4--
B--3--3-3---3--3-3-
G---2--2---2------2

Play this figure 7 times 
then
E-0--0-----0---
B--3--3-3---3--
G---2--2-----2-

Repeat
Csus2 G Csus2 G
e---3---3---3---3-
B---3---3---3---3-
G---5---4---3---4-
D---5---5---3---5-
A---3---5---3---5-
E---3---3---3---3-

And the figure 4 times

Now switch in the "heavy" chords
Am - G -Am - G - Am - G - Am - Am

Followed again by our little figure 4 times and again heavy hitting on Am and G

Am - G - Am - G - Am - G - Am  - Bm ending on Dsus2 (formed like in intro, hit the high e-string explicit for the screaming effect)

Ending on the intro chords (soft)


Chords:
Am	x02210 (in the intro and verse)
Am	577555 (the heavy chord in the second part of the song)
G	355433 (the heavy chord in the second part of the song)
Dsus2	xx7750
Csus2 335533
Comments