God Is An Astronaut - Sunrise In Aries Chords & Tabs

 

Sunrise In Aries Chords & Tabs

God Is An Astronaut Chords & Tabs

Version: 1 Type: Tab 0 ratings
1 star 2 stars 3 stars 4 stars 5 stars
comments

Sunrise In Aries Tab

Tempo = 70
Tuning: DROPPED D (DADGBE)

INTRO

Keyboard part:

E ||-------------------13------|--12--||
B ||-13-------10---------------|------||
G ||o--------------------------|-----o||
D ||o--------------------------|-----o||
A ||---------------------------|------||
E ||---------------------------|------||


Guitar part

E ||---------------------------|----------------------------|
B ||---------------------------|----------------------------|
G ||o---------2--------5-------|--------5--2----------------|
D ||o0-------------------------|--5-------------------------|
A ||---------------------------|--------------------3-------|
D ||---------------------------|----------------------------|


----------------------------|
----------------------------|
-----------2--------5-------|
--0-------------------------|
----------------------------|
----------------------------|


--------8-----------------------------3------------||
--------------10----------------------------3s-----||
--7-----------------------0h-2--2-----------------o||
--------------------------------------------------o||
---------------------------------------------------||
---------------------------------------------------||

Main Riff


---------------------------------------------------|
----------------------------------6----------------|
o--------------------------------------------------|
o3-----------3-----3--3--5s-5--5-------------------|
-------------------------------------3--3--5--5----|
---------------------------------------------------|


----------------------------------------------------|
----------------------------------------------------|
--------------5--------------5----------------------|
-----------7-----7-----7-----------7----------------|
--3s-5--5-----------------------------------0--3----|
----------------------------------------------------|


----------------------------------------------------|
----------------------------------------------------|
--10----9--------------------10----------10-10------|
--10----------10----------10----------10----10------|
--8--------------------5--------7-----------8-------|
-----------------------5--------7-------------------|

[ Tab from: http://www.guitartabs.cc/tabs/g/god_is_an_astronaut/sunrise_in_aries_tab.html ]
----------------------------------------------------|---------------------||
--------------------------3--------3-----3----------|--3--------3-----3---||
--9--------------------5--------5-----5--------5----|--------5-----5-----o||
--------10-------------------3--------------0-------|-----0--------------o||
----------------------------------------------------|---------------------||
--------------0--3----------------------------------|---------------------||

Played twice then end with:

----------------------------------------------------|
--------3--------3----------------------------------|
--5--5--------5--------5--5-------------------------|
--2--------2--------2-----3-------------------------|
----------------------------------------------------|
----------------------------------------------------|

Let the final chord ring then back to intro

Then main riff

Then

----------------------------------------------------|
----------------------------------------------------|
--------9-----10-------------12-12-12-12-12-12-12---|BEND and release several times
----------------------------------------------------|
-----------------8-----110---------------------------|
--8--------------8-----10---------------------------|


----------------------------------------------------|
----------------------------------------------------|
----------------------------------------------------|
--------15----------15-14----15----------12---------|
--12-------------------------------10---------------|
--12-------------------------------10---------------|


----------------------------------------------------|
-----------------------------6-----5----------------|
--------9-----10------------------------------------|
-----------------------------------------7--7-------|
--8-----------------8--5----------------------------|
--8-----------------8--5----------------------------|


----------------------------------------------------||
----------------------------------------------------||
--------7-------------------------------------------||
-----------------------------10-------10------------||
--7--------------7-----8--------8--------8----------||
--7--------------7-----8-----------8--------8-------||

(Repeat and end on main riff)

Tabbed by H-A-D suggestions and comments/corrections welcome!
Comments