God Forbid - Precious Lie Chords & Tabs

 

Precious Lie Chords & Tabs

God Forbid Chords & Tabs

Version: 2 Type: Tab 0 ratings
1 star 2 stars 3 stars 4 stars 5 stars
comments

Precious Lie Tab

Good Song! i got most of the main guitar riffs minus the solo and the last portion of
the song.  Please notify me with any corrections for this tab. PLEASE RATE THIS TAB! Thank you!

Intro/chorus
e----------------------------------------------------------|
b----------------------------------------------------------|
g-6---8---9---8---9---11--9--------------------------------|
d-x---x---x---x---x---x---x---7---4---6--------------------|
a-4---6---7---6---7---9---7---7---4---6--------------------|
d-----------------------------7---4---6--------------------|
[ Tab from: http://www.guitartabs.cc/tabs/g/god_forbid/precious_lie_tab_ver_2.html ]
Verse
e-----------------------------------------------------------|
b-----------------------------------------------------------|
g-7---------6--------5-4--------3---------------------------|
d-7---------6--------5-4--------3---------------------------|
a-5---------4--------3-2--------1---------------------------|
d---0-0-0-0---0-0-5b-----0-0-3b---1b------------------------|
pm  . . . .   . .        . .

e-----------------------------------------------------------|
b-----------------------------------------------------------|
g-6---------------------------6-/-8-8-8---------------------|
d-6---------------------------x-/-x-x-x---------------------|
a-4---------------------------4-/-6-6-6---------------------|
d---0-0-0-0-0-0-0-0-0-0-0-0-0-------------------------------|
pm  . . . . . . . . . . . . .

e-------------------------------------------------------------|
b-------------------------------------------------------------|
g-------------------------------------------------------------|
d--0-0-6h7-7-0-0-4h6-6-0-0-2-0-4-0-0-6-0-4-6--7-7-7--9-9-9----|
a--0-0-------0-0-------0-0---0---0-0---0---6--7-7-7--9-9-9----|
d--0-0-------0-0-------0-0---0---0-0---0---6--7-7-7--9-9-9----|
pm . .       . .       . .   .   . .   .
Comments