God Forbid - Precious Lie Chords & Tabs

 

Precious Lie Chords & Tabs

God Forbid Chords & Tabs

Version: 1 Type: Tab 0 ratings
1 star 2 stars 3 stars 4 stars 5 stars
comments

Precious Lie Tab

This comes after the slow intro
[ Tab from: http://www.guitartabs.cc/tabs/g/god_forbid/precious_lie_tab.html ]
e-------------------------------------------------------------|
b-------------------------------------------------------------|
g-7---------6--------5-4--------3-----------------------------|x4
d-7---------6--------5-4--------3-----------------------------|
a-5---------4--------3-2--------1-----------------------------|
d---0-0-0-0---0-0-5b-----0-0-3b---1b~-------------------------|
  pm. . . .   . .        . .


e-------------------------------------------------------------|
b-------------------------------------------------------------|
g-7-----------------------2-6-6-6-7---------------------------|
d-7-----------------------x-x-x-x-7---------------------------|Verse
a-5-----------------------0-4-4-4-5---------------------------|
d---0-0-0-0-0-0-0-0-0-0-0-------------------------------------|

There are other riffs in the verse but i dont know them
Comments