God Dethroned - Under The Silver Moon Chords & Tabs

 

Under The Silver Moon Chords & Tabs

God Dethroned Chords & Tabs

Version: 1 Type: Tab 0 ratings
1 star 2 stars 3 stars 4 stars 5 stars
comments

Under The Silver Moon Tab

   
GOD DETHRONED - Under The Silver Moon "Version 1.0"
>From The Album "The Grand Grimoire"
Transcribed by Goatwarlock(Goatwarlock@Hotmail.com)
All corrections and comments welcome

I am 1/4 way done with this masterpiece and will add
the solo and every to the rest later.

p-Palm mute          v-Vibrato
...-Play many times
/-Slide

This Song Takes Two Guitars Both Downtuned 1 Step
You must have a machinegun hand to play this riff!
00:00-00:22 RIFFA1
|--------------------------|
|--------------------------|
|--------------------------|
|--------------------------|
|-5-4-2-9-8-9-9-7-5-14-12--|
|-3-2-0-7-6-7-7-5-3-12-10--|
|A2
|--------------------------|
|--------------------------|
|--------------------------|
|--------------------------|
|-5-4-2-9-8-9-9-7-5-14-12--|
|-3-2-0-7-6-7-7-5-3-12-10--|
|A1
|---------------------------------------------------|
|---------------------------------------------------|
|---------------------------------------------------|
|---------------------------------------------------|
|--------------------------------------5-4-2-9-8-9--|
|-7...p-3...p-0...p-7...p-3...p-0...p--3-2-0-7-6-7--|
|A2
|---------------------------------------------------|
|---------------------------------------------------|
|---------------------------------------------------|
|---------------------------------------------------|
|--------------------------------------5-4-2-9-8-9--|
|-7...p-3...p-0...p-7...p-3...p-0...p--3-2-0-7-6-7--|
|A1
|----------------------------------------------------|
|----------------------------------------------------|
|----------------------------------------------------|
|----------------------------------------------------|
|---------------------------------------9-7-5-14-12--|
|-9...p-5...p-0...p-12...-p-7...p-0...--7-5-3-12-10--|
|A2
|----------------------------------------------------|
|----------------------------------------------------|
|----------------------------------------------------|
|----------------------------------------------------|
|---------------------------------------9-7-5-14-12--|
|-9...p-5...p-0...p-12...-p-7...p-0...--7-5-3-12-10--|
[ Tab from: http://www.guitartabs.cc/tabs/g/god_dethroned/under_the_silver_moon_tab.html ]
00:22-00:48 RIFFB1
|----------------------------------------|
|----------------------------------------|
|----------------------------------------|
|----------------------------------------|
|----------------------------------------|
|----------------------------------------|
|B2
|----------------------------------------|
|------------------------7.../9/7--------|
|------------------------5.../7/5--------|
|-9.../10/9--5...--9...------------7...--|
|-7.../8 /7--3...--7...------------5...--|
|----------------------------------------|
|B1
|----------------------------------------|
|----------------------------------------|
|----------------------------------------|
|----------------------------------------|
|----------------------------------5v----|
|----------------------------------------|
|B2
|----------------------------------------|
|------------------------7.../9/7--------|
|------------------------5.../7/5--------|
|-9.../10/9--5...--9...------------7...--|
|-7.../8 /7--3...--7...------------5...--|
|----------------------------------------|
|B1
|-------------------------------------------------------|
|-------------------------------------------------------|
|----------------------------------------------9...-7...|
|-5...-4...-5...-2...-9...-7...------9...-7...----------|
|-------------------------------7...--------------------|
|-------------------------------------------------------|
|B2
|----------------------------------------|
|------------------------7.../9/7--------|
|------------------------5.../7/5--------|
|-9.../10/9--5...--9...------------7...--|
|-7.../8 /7--3...--7...------------5...--|
|----------------------------------------|
|B1
|-------------------------------------------------------|
|-------------------------------------------------------|
|----------------------------------------------9...-7...|
|-5...-4...-5...-2...-9...-7...------9...-7...----------|
|-------------------------------7...--------------------|
|-------------------------------------------------------|
|B2
|----------------------------------------|
|------------------------7.../9/7--------|
|------------------------5.../7/5--------|
|-9.../10/9--5...--9...------------7...--|
|-7.../8 /7--3...--7...------------5...--|
|----------------------------------------|
|B1
|------------------------------------|----------------|
|------------------------------------|----------------|
|----------------5...----------------|CAN'T HEAR THIS-|
|-2...-5...-7...------7...-5...-7...-|NEXT PART...----|
|------------------------------------|----------------|
|------------------------------------|----------------|
|B2
|----------------------------------------|
|------------------------7.../9/7--------|
|------------------------5.../7/5--------|
|-9.../10/9--5...--9...------------7...--|
|-7.../8 /7--3...--7...------------5...--|
|----------------------------------------|
|B1
|------------------------------------|----------------|
|------------------------------------|----------------|
|----------------5...----------------|CAN'T HEAR THIS-|
|-2...-5...-7...------7...-5...-7...-|NEXT PART...----|
|------------------------------------|----------------|
|------------------------------------|----------------|
|B2
|----------------------------------------|
|------------------------7.../9/7--------|
|------------------------5.../7/5--------|
|-9.../10/9--5...--9...------------7...--|
|-7.../8 /7--3...--7...------------5...--|
|----------------------------------------|

00:48-01:10 Play RIFFA

01:10-01:26 RIFFC1
|--------------------------------|
|--------------------------------|
|--------------------------------|
|-9-5-7-2---------------9-5-7-2--|
|-7-3-5-0---5-5/7-7/5---7-3-5-0--|
|-----------3-3/5-5/3------------|
|C2
|--------------------------------|
|--------------------------------|
|--------------------------------|
|-9-5-7-2---------------9-5-7-2--|
|-7-3-5-0---5-5/7-7/5---7-3-5-0--|
|-----------3-3/5-5/3------------|
NOT FINISHED YET....
Comments