God Dethroned - Bloody Blasphemy Chords & Tabs

 

Bloody Blasphemy Chords & Tabs

God Dethroned Chords & Tabs

Version: 1 Type: Tab 0 ratings
1 star 2 stars 3 stars 4 stars 5 stars
comments

Bloody Blasphemy Tab

   
  ===GOD DETHRONED===

BLOODY BLASPHEMY
(track 9 on BLOODY BLASPHEMY '99 Metal Blade Records)


TUNING:D

t = trill
" = tremolo pick
~ = vibrato, or hold
x = dead note
/xxxxxxxx\   = pick slide
/=slide up \ =slide down


Transcribed by: Zack Demianczyk and Oleg Asserin
corrections, etc. : parisc97@erols.com, email Zach at dio@nauticom.net


   Riff 1*
e
|---------------------------------------------------------------------------
--
B
|---------------------------------------------------------------------------
--
G
|---------------------------------------------------------------------------
--
D
|--------------------------------------2------------------------------------
--
A
|-2----------------------2t3---2---2-3---2----------------------2t3---2---2-
3-
e
|-000-000-000-000-000-etc----3---3-------000-000-000-000-000...-----3---3---
--
    (12 x)
e ------------------------------------------------------------------------
B ------------------------------------------------------------------------
G --------------------4--2--0---------------------------------------------
D 2-------------------5--4--2-------------------------2-------------------
A ----------------------------------------2t3--2--2-3---------------------
E --00-00-00-00-00-00---------00-00-00-00-----3-3-------00-00-00-00-00-00-

* rhythm is like a triplet with rest in the middle, maybe it's not three
times,
it's twice that he plays it like this '00-00-00-etc'

                                    Riff 2 2x
e --------------------------------|---------------------------------
B ----4---------------------------|---------------------------------
G -7--5--7----------------------4-|---------------------------------
D -9----------------------------4-|------------9-7-9----------------
A ----------------------2t3---2---|----3---2---7-5-7-----3-----2----
E ----------00-00-00-00-----3-----|-000-000-000------000---000--000-

e ----------------------------------------------------------------------|
B ----------------------------------------------------------------------|
G -------------------------------------------------------5------2-------|
D -5---4---2-------------------9-7-9-----------------------3-23---3-2-0-|
A -----------------3-----2-----7-5-7-----3----2223330000----------------|
E ---0---0---0-000---000---000-------000---000--------------------------|

RIFF 1 with lyrics: On The DaY You Died, they just left you there.
                    Did You Think that i didn't care?
                    I just hated the idea of having to share.
                    My Stomach Ached For Some Juicy Flesh.
[ Tab from: http://www.guitartabs.cc/tabs/g/god_dethroned/bloody_blasphemy_tab.html ]
RIFF 3 1x, 2x with lyrics  (*originally thought this note below was a C (in
D)
e |----------------------------------------------------------------------
on 10th
B |----------------------------------------------------------------------
fret)
G |----------------------------------------------------------------------
D |---9"------------------------9"----------------7-----9"---------------
A |-7"--10"-*--9"-10"-9"-10"-7"-----10"-*--9"-10"-5--7"----10"-*--9"-10"-
E |---------8"--------------------------8"---------------------8"--------

                                              RIFF 4 with lyrics
e ------------------------------------------|-------------------------------
-----
B ------------------------------------------|-------------------------------
-----
G ---------------------(9)------------------|-9---7---5--4-5-4--9---7---5--4
-5-4-
D ----------9"-10"-12"-14"-12"-10"-9"-------|-9---7---5--4-5-4--9---7---5--4
-5-4-
A
9"-10"-7"---------------------------9"-8"-|-7---5---3--2-3-2--7---5---3--2-3
-2-
E ------------------------------------------|-0-----------------0-----------
-----

That Night on the Hill. After the Golgotha Kill. You thought I would help,
but I'm sorry./
Jesus Christ. They nailed you alive. I tore your off, it hurt I'm sorry.
RIFF 4 lyrics = I     was   waiting,    then   disappearing     WITH YOU,
              FOR YOU to shine before God.  Holding you    in my arms with
love.
                To eat you with love,/with love.

                                RIFF 5 6x          pick slide, 2nd time only
   for riff 5RHYTHM GUITAR =    E5           E5  /xxxxxxx\         E5
e -----------------------------|------------------------------------
B -----------------------------|------------------------------------
G 7---7---5--4-5-4--7---7---7--|-0----------------------------------
D 7---7---5--4-5-4--9---7---7--|-2--------------2-12-x-x-10-x-x-9--2
A 9---5---3--2-3-2--9---5---9--|-2-/10--10-10-9-2------------------2
E 0-----------------0-------0--|-0--------------0------------------0

          G5?    C5?       SOLO TIME (lead: Jens)
e -----------------------|-------------------------------------------
B -----------------------|-------------------------------------------
G -----------------------|----------------------9~---12---14--16~-14-
D -----------------------|/10-9-7-9--9t10---12-----------------------
A -9-99-12---10-9---7-9--|-------------------------------------------
E ---------8------8------|-------------------------------------------

RIFF 5 has 3 guitars. 1 guitar first 2 times, 2 guitars 2 next, 3 guitars 2
next, and solo guitar ends it.

e ---------------------------------------------------------------------
B ---------------------------------------------------------------------
G 12-14~----17-16-17/19-21-19-17-16-17-14t16---12t14--11t12--9~---7h9--
D ---------------------------------------------------------------------
A ---------------------------------------------------------------------
E ---------------------------------------------------------------------

e ----------------------------------------------------| RIFF 5 with
lyrics(2x)
B ----------------------------------------------------|  BlO-O-dy Blasphemy!
G 9-7-5--------------------------------------12~~~~~--|  Bloody Blasphemy!
D ------9-7-5t7---/9-7-/10-9--/12-9-10-12~------------|  Bloooooody
Blasphemy!
A ----------------------------------------------------|  Bloody Blasphemy!
E ----------------------------------------------------|------------|

RIFF 3 3x with lyrics "The night on the hill. After the Golgotha kill...."
RIFF 4 2x with lyrics "I was waiting, then disappearing with you, for you
to..."
RIFF 2 2x , end with E5
Comments