God - God Chords & Tabs

 

God Chords & Tabs

God Chords & Tabs

Version: 1 Type: Tab 0 ratings
1 star 2 stars 3 stars 4 stars 5 stars
comments

God Tab

Solo (with the rhythm progression):
e:-------------------|----|-----------8--------|------------------|
B:-10\8--6--8/10--6~-|----|-/10-10-10----10\8--|-----6---------6--|
G:-------------------|----|--------------------|--------/7--------|
D:-------------------|----|--------------------|------------------|
A:-------------------|----|--------------------|------------------|
E:-------------------|----|--------------------|------------------|
  
e:----------------------|--------|--------------/10\8----------|------------|
B:-/10--8--6--8--10-6/8-|-\6-----|-/10--10--10----------10--10-|-\8-\6-\5---|
G:----------------------|-----7--|-----------------------------|------------|
D:----------------------|--------|-----------------------------|------------|
A:----------------------|--------|-----------------------------|------------|
E:----------------------|--------|-----------------------------|------------|

e:--/10------|----10\8----5----|---/10\8---------|--(8)--|---------------|
B:-----------|-----------------|-----------------|-------|-------13/15\--|
G:-----------|-----------------|-----------------|-------|---------------|
D:-----------|-----------------|-----------------|-------|---------------|
A:-----------|-----------------|-----------------|-------|---------------|
E:-----------|-----------------|-----------------|-------|---------------|

e:----------------------|
B:-13-----15\10---10\5--|
G:----------------------|
D:----------------------|
A:----------------------|
E:----------------------|
[ Tab from: http://www.guitartabs.cc/tabs/g/god/god_tab.html ]
Comments