Gob - What To Do Chords & Tabs

 

What To Do Chords & Tabs

Gob Chords & Tabs

Version: 3 Type: Tab 0 ratings
1 star 2 stars 3 stars 4 stars 5 stars
comments

What To Do Tab

#----------------------------------PLEASE NOTE---------------------------------#
#This file is the author's own work and represents their interpretation of the #
#song. You may only use this file for private study, scholarship, or research. #
#------------------------------------------------------------------------------##

Finally! You people out there who wanted gob are gonna get gob. 
Enough talk here's your song

From: Neil (evilfiend_187@hotmail.com)

Title: What To Do
Artist: Gob
Source: How Far Shallow Takes You
Transcribed by: Neil Lambertsen
Tuning: Drop D


Intro:  Riff 1

E||--------------------------------------------------------------------------------------------------|
B||---4-3-1-3-------4-3-1-3-------4-3-1-3-3/4-----4-3-1-3-1----4-3-1-3-------------------------------|
G||-3---------3---3---------0---3---------------3------------3---------------------------------------|
D||--------------------------------------------------------------------------------------------------|
A||--------------------------------------------------------------------------------------------------|
D||--------------------------------------------------------------------------------------------------|

Rhythm Fill 1:

 
      PM---------|      PM--|     PM--|      PM---------|      PM--|
E||--------------------------------------------------------------------------------------------------|
B||--------------------------------------------------------------------------------------------------|
G||--------------------------------------------------------------------------------------------------|
D||------------------------------------------------------------------8888888-------------------------|
A||-8---------------5-3-------3-1-------1--8---------------5-3-------6666666-------------------------|
D||-8-888888888888--5-3-33333-3-1-11111-1--8-888888888888--5-3-33333---------------------------------|

Chorus:


E||--------------------------------------------------------------------------------------------------|
B||--------------------------------------------------------------------------------------------------|
G||-----------------------------------------------------~~~~~~~~~~~~~~~~~~---------------------------|
D||-----------------------------------8-8-8-8-8-8-------Fill in with Intro---------------------------|
A||-8-8-8-8-8-8-8-8-8-8-8--3-3-3-3-3--6-6-6-6-6-6-------~~~~~~~~~~~~~~~~~~---------------------------|
D||-8-8-8-8-8-8-8-8-8-8-8--3-3-3-3-3-----------------------------------------------------------------|
   
    {-------------------2X----------------------}



-Play Rhythm Fill 1 again
-Then Play the Chorus again

[ Tab from: http://www.guitartabs.cc/tabs/g/gob/what_to_do_tab_ver_3.html ]
Part Before Solo:
                                                                        PM--------|
E||--------------------------------------------------------------------------------------------------|
B||--------------------------------------------------------------------------------------------------|
G||--------------------------------------------------------------------------------------------------|
D||-5-5-5-5-5-5-5-5-5-5-5-7-8-------8-----7---5-5-5-5-5-5-5-5-5-5-5-7-8-------------8----------------|
A||-3-3-3-3-3-3-3-3-3-3-3-5-6-0-5-0-6-0-3-5---3-3-3-3-3-3-3-3-3-3-3-5-6-66666666666-6----------------|
D||---------------------------0-5-0---0-3------------------------------------------------------------|


Solo:

E||--------------------------------------------------------------------------------------------------|
B||--------------------------------------------------------------------------------------------------|
G||--------------------------------------------------------------------------------------------------|
D||--------------------------------------------------------------------------------------------------|
A||-6-6-5-5-3-3-1--6-6-5-5--------6-6-5-5--------6-6-5-5--------6-6-5-5-----1---6-6-5-5--------------|
D||------------------------8-8-5----------5-5-3----------3-3-1----------1-1-------------8-8-5--------|


E||--------------------------------------------------------------------------------------------------|
B||--------------------------------------------------------------------------------------------------|
G||--------------------------------------------------------------------------------------------------|
D||-------------------------------------------------    REPEAT X 2     ------------------------------|
A||-6-6-5-5--------6-6-5-5--------6-6-5-5-----1------------------------------------------------------|
D||---------5-5-3----------3-3-1----------1-1--------------------------------------------------------|


After Solo:

E||--------------------------------------------------------------------------------------------------|
B||--------------------------------------------------------------------------------------------------|
G||--------------------------------------------------------------------------------------------------|
D||-5-5-5-5-5-5-5-5-5-5-5-7-8-------8-----7-----  Repeat Until Song Ends!----------------------------|
A||-3-3-3-3-3-3-3-3-3-3-3-5-6-0-5-0-6-0-3-5----------------------------------------------------------|
D||----------------------------0-5-0---0-3-----------------------------------------------------------|



There You Go. It's really easy once you get it. If you find anything wrong with
my tab, or anything else, bitch at me at evilfiend_187@hotmail.com.  Have Fun!
Comments