Gob - What To Do Chords & Tabs

 

What To Do Chords & Tabs

Gob Chords & Tabs

Version: 2 Type: Tab 0 ratings
1 star 2 stars 3 stars 4 stars 5 stars
comments

What To Do Tab

   
Title: What To Do
Artist: Gob
Tuning: Flat (Eb, Ab, Db, Gb, Bb, Eb)
Instrument: Guitar 2

INTRO (rhythm)
e--------------|--------------|--------------|--------------|--------------|
B--------------|--------------|--------------|--------------|--------------|
G-----------4-4|-4-4-4-4---2-2|-2-2-2-2------|--------------|--------------|
D-----------4-4|-4-4-4-4---2-2|-2-2-2-2---2-2|-2-2-2-2---4-4|-4-4-4-4------|
A-----------2-2|-2-2-2-2---0-0|-0-0-0-0---2-2|-2-2-2-2---4-4|-4-4-4-4------|
E--------------|--------------|-----------0-0|-0-0-0-0---2-2|-2-2-2-2------|
[ Tab from: http://www.guitartabs.cc/tabs/g/gob/what_to_do_tab_ver_2.html ]
VERSE
e|-----------------|-----------------|-----------------|-----------------|
B|-----------------|-----------------|-----------------|-----------------|
G|-4-X-X-X-X-X-X-X-|-X-X-X-X-X-X-4-4-|-----------------|-----------------|
D|-4-X-X-X-X-X-X-X-|-X-X-X-X-X-X-4-4-|-4-4-X-X-X-X-4-4-|-2-2-X-X-X-X-2-2-|
A|-2-X-X-X-X-X-X-X-|-X-X-X-X-X-X-2-2-|-4-4-X-X-X-X-4-4-|-2-2-X-X-X-X-2-2-|
E|-----------------|-----------------|-2-2-X-X-X-X-2-2-|-0-0-X-X-X-X-0-0-|
                                                                           X=p.m.
e|-----------------|-----------------|-----------------|-----------------|
B|-----------------|-----------------|-----------------|-----------------|
G|-4-X-X-X-X-X-X-X-|-X-X-X-X-X-X-4-4-|-----------------|-8/9-9-9-9-9-9-9-|
D|-4-X-X-X-X-X-X-X-|-X-X-X-X-X-X-4-4-|-4-4-X-X-X-X-4-4-|-8/9-9-9-9-9-9-9-|
A|-2-X-X-X-X-X-X-X-|-X-X-X-X-X-X-2-2-|-4-4-X-X-X-X-4-4-|-6/7-7-7-7-7-7-7-|
E|-----------------|-----------------|-2-2-X-X-X-X-2-2-|-----------------|

CHORUS
e|-----------------|-----------------|-----------------|
B|-----------------|-----------------|-----------------|
G|-4-4-4-4-4-4-4-4-|-----------------|-8/9-9-9-9-9-9-9-|
D|-4-4-4-4-4-4-4-4-|-4-4-4-4-4-4-4-4-|-8/9-9-9-9-9-9-9-|
A|-2-2-2-2-2-2-2-2-|-4-4-4-4-4-4-4-4-|-6/7-7-7-7-7-7-7-|
E|-----------------|-2-2-2-2-2-2-2-2-|-----------------|

BRIDGE
E|-----------------|-----------------|-----------------|-----------------|
B|-----------------|-----------------|-----------------|-----------------|
G|-6---6-6-6-6-6-6-|-6-6-6-6-6-6-8---|-9---9-9-9-9-9-9-|-----------------|
D|-6---6-6-6-6-6-6-|-6-6-6-6-6-6-8---|-9---9-9-9-9-9-9-|-9---9-4---4-4-4-|
A|-4---4-4-4-4-4-4-|-4-4-4-4-4-4-6---|-7---7-7-7-7-7-7-|-9---9-4---4-4-4-|
E|-----------------|-----------------|-----------------|-7---7-2---2-2-2-|

SOLO (rhythm)
E|-----------------|-----------------|-----------------|-----------------|
B|-----------------|-----------------|-----------------|-----------------|
G|-4-4---------4-4-|-----------------|-----------------|-----------------|
D|-4-4---------4-4-|-6-6---------6-6-|-4-4---------4-4-|-2---------------|
A|-2-2---------2-2-|-6-6---------6-6-|-4-4---------4-4-|-2---------------|
E|-----------------|-4-4---------4-4-|-2-2---------2-2-|-0---------------|
    
INTRO
VERSE
CHORUS
INTRO
VERSE
CHORUS
BRIDGE
SOLO
BRIDGE
Comments