Gob - The Perfect Remedy Chords & Tabs

 

The Perfect Remedy Chords & Tabs

Gob Chords & Tabs

Version: 1 Type: Tab 0 ratings
1 star 2 stars 3 stars 4 stars 5 stars
comments

The Perfect Remedy Tab

   
The Perfect Remedy - Gob
World According to Gob
Tuning: Eb Ab Db Gb Bb Eb

x = muted notes

Intro 
Guitar 1
Eb------------------------------------------------------------------------------
Bb-----------------4-----------------------------------4------------------------
Gb------------------------------------------------------------------------------
Db------------------------------------------------------------------------------
Ab---6-6-6-6-6-6-6---6-6-6-6-6-6-6------0-0-0-0-0-0-0------0-0-0-0-0-0-0--------
Eb------------------------------------------------------------------------------

Eb------------------------------------------------------------------------------
Bb------------------4------------------------------------4----------------------
Gb------------------------------------------------------------------------------
Db----------------------------------------2-2-2-2-2-2-2-------------------------
Ab---4-4-4-4-4-4-4-----4-4-4-4-4-4-4--0---------------------2-2-2-2-2-2-2---0---
Eb------------------------------------------------------------------------------

Guitar 2 (After guitar 1 plays its intro once)

Eb------2-----------
Bb--4-------0---2---
Gb------------------
Db------------------
Ab------------------
Eb------------------

Guitar 1
Eb------------------------------------------------------------------------------
Bb-----------------7-----------------------------------7------------------------
Gb------------------------------------------------------------------------------
Db------------------------------------------------------------------------------
Ab---6-6-6-6-6-6-6---6-6-6-6-6-6-6------0-0-0-0-0-0-0------0-0-0-0-0-0-0--------
Eb------------------------------------------------------------------------------

Eb------------------2------------------------------------2----------------------
Bb------------------------------------------------------------------------------
Gb------------------------------------------------------------------------------
Db----------------------------------------2-2-2-2-2-2-2-------------------------
Ab---4-4-4-4-4-4-4-----4-4-4-4-4-4-4--0---------------------2-2-2-2-2-2-2---0---
Eb------------------------------------------------------------------------------
[ Tab from: http://www.guitartabs.cc/tabs/g/gob/the_perfect_remedy_tab.html ]
Guitar 2
Eb------------2----------------------
Bb--4--5--0--------4--5--0-----------
Gb-----------------------------------
Db-----------------------------------   
Ab-----------------------------------
Eb-----------------------------------

Then

Eb------------2--------------2-------
Bb--4--5--0--------4--5--0-----------
Gb-----------------------------------
Db-----------------------------------   
Ab-----------------------------------
Eb-----------------------------------

Intro2/Chorus
Eb---------------------------------------------(0)------------------------------
Bb-----------------------------------------------(0)----------------------------
Gb-------------------------------------------------(6)--------------------------
Db-9-9-9--9-9-9-9--9-9-9--9-9-9-9-7-7-7-7-7-7-7-7-7-7-7-7-7-7-------------------
Ab-6-6-6--7-7-7-7--6-6-6--7-7-7-7-7-7-7-7-7-7-7-7-7-7-7-7-7-7-------------------
Eb--------------------------------5-5-5-5-5-5-5-5-5-5-5-5-5-5-------------------

Eb--------------------------
Bb--------------------------
Gb-6-6-6-6----------4-4-4---
Db-4-4-4-4---2-2-2--4-4-4---
Ab-4-4-4-4---2-2-2--2-2-2---
Eb-----------0-0-0----------
   
Guitar 2 has a little lick during the chorus, it is written in parentheses.

The verse is mostly bass, until the second half.

Guitar 2 goes like this on the second half of the verse...

Eb-----------------------------------
Bb--4---0---4---0---4---0------------
Gb-----------------------------------
Db-----------------------------------
Ab-----------------------------------
Eb-----------------------------------

Pre-Chorus
I could help you choose a name...
Eb--------------------------------
Bb--------------------------------
Gb---------------66---------------
Db--77-xx-77-xx--66--77-xx--------
Ab--77-xx-77-xx--44--77-xx--------
Eb--55-xx-55-xx------55-xx--------
                       

It does that, then theres this little lick
Fill 1
Eb----------------------------------------------------------------------
Bb----------------------------------------------------------------------
Gb----------------------------------------------------------------------
Db---4-6-4-7-7-6-4---4-6-4-7-7-6-4-----4-6-4--4-6-4--4-6-4--4-6-4-------
Ab--0--------------0----------------------------------------------------
Eb-----------------------------------0-------0------0------0------------
  
Guitar 1 Intro          x2
Guitar 2 Intro          x1
Intro2                  x2
Verse 1                 x2
Verse 2	                x2
Pre-Chorus              x4
Verse 1	                x2
Verse 2                 x1
Pre-Chorus              x4
Chorus                  x2
Fill  1                 x5
Intro 1                 x2
Pre-Chorus              x4
Chorus                  x2
Pre-Chorus (as outro)   x8
Comments