Gob - The Other Way Chords & Tabs

 

The Other Way Chords & Tabs

Gob Chords & Tabs

Version: 1 Type: Bass Tab 0 ratings
1 star 2 stars 3 stars 4 stars 5 stars
comments

The Other Way Bass Tab

Song: The Other Way
Band: Gob
Album: Ass Seen On TV
tabbed by: Kyle D (bdacosta@uniserve.com)
 
Intro
G:--------------0>--2-2-0-------
D:--0>--2>--4>-------------4--
A:----------------------------------
E:----------------------------------
 
Verse
G:----------------------------------------|-------------------------------------------
D:--0>-----0>--5-5-4-5--0>------0>--5-5-4-|-----------2-2-1-2----------
A:-----0>-------------------0>------------|-2>--0>--2>--------2>-0>-2>--
E:----------------------------------------|-------------------------------------------
 
Chorus
G:-----------------------------------
D:---------0>-----------------------
A:-----2-3----3-2-0>-1-2-3>---
E:--3>------------------------------


[ Tab from: http://www.guitartabs.cc/tabs/g/gob/the_other_way_btab.html ]
Comments