Gob - Self Appointed Leader Chords & Tabs

 

Gob Chords & Tabs

Version: 1 Type: Tab 0 ratings
1 star 2 stars 3 stars 4 stars 5 stars
comments

Self Appointed Leader Tab

   
------------------------------------------------------------------------------- 
SELF APPOINTED LEADER - Gob 
------------------------------------------------------------------------------- 

By: big_pickle@hotmail.com 

i wasn't satisfied with the tab that was already posted here so i took the 
liberty of posting a good tab for all you Gob fans out there that haven't 
yet sold out. If you like their new album "world according to" then don't 
bother with this tab cause this is not your kind of music. 
if anybody knows the solo for t.k.o. by reset please send it to me 

tuned down 1/2 step 
(Eb,Bb,Gb,Db,Ab,Eb) 

intro (gtr.1) 
e|-----------------------------------------------------------| 
B|-----------------------------------------------------------| 
G|.--------------------------5------------------------------.| 
D|.-2-2-2--2-2-5--2-2-2--2-2-5--2-2-2--2-2-5--2-2-2--2-2-3--.| 
A|--2-2-2--2-2-5--2-2-2--2-2-3--2-2-2--2-2-5--2-2-2--2-2-3---| 
E|--0-0-0--0-0-3--0-0-0--0-0----0-0-0--0-0-3--0-0-0--0-0-1---| 
PM . . . . . . . . . . . . . . . . 

2 times, then... 

(gtr.2) 
e|-----------------------------------| 
B|-----------------------------------| 
G|--9--12--7--9--12----7-------------| 
D|------------------------5-4-----2--| 
A|--7--10--5--7--10----5------7-5-2--| 
E|--------------------------------0--| 

verse 
e|----------------| 
B|----------------| 
G|.-----5-----4--.| 
D|.--2--5--7--4--.| 
A|---2--3--7--2---| 
E|---0-----5------| 
[ Tab from: http://www.guitartabs.cc/tabs/g/gob/self_appointed_leader_tab.html ]
chorus 
e|----------------| 
B|----------------| 
G|.--5--------4--.| 
D|.--5--5--7--4--.| 
A|---3--5--7--2---| 
E|------3--5------| 

solo 
e|-----------------------------------------------| 
B|-----------------------------------------------| 
G|.---------------------------------------------.| 
D|.------5-4---5-4---5-4------4-5---4-5---4-5---.| 
A|---3-3-----3-----3------5-5-----5-----5--------| 
E|-----------------------------------------------| 
PM . . . . . . . . 

8 times , then... 
e|-------------------------------------------------| 
B|-------------------------------------------------| 
G|--2-2-4-2--2-4-2--2-4-2---2-2-2-4--2-2-4--2-2-4--| 
D|-------------------------------------------------| 
A|-------------------------------------------------| 
E|-------------------------------------------------| 
PM . . . . . . . . 

e|-------------------------------------------------| 
B|-------------------------------------------------| 
G|--5-5-7-5--5-7-5--5-7-5---7-7-9-7--7-9-7--7-9-7--| 
D|-------------------------------------------------| 
A|-------------------------------------------------| 
E|-------------------------------------------------| 
PM . . . . . . . . 

outro 
e|-----------------|-----------------| 
B|-----------------|-----------------| 
G|.----------5-7--.|--5-7-5-7-5-7----| 
D|.--5--4--2-5-7--.|--5-7-5-7-5-7-2--| 
A|---5--4--2-3-5---|--3-5-3-5-3-5-2--| 
E|---3--2--0-------|--------------0--| 

comments , corrections , love bigwig cause they kick ass, e-mail me 
===============================================================================
Comments