Gob - Paint It Black Chords & Tabs

 

Paint It Black Chords & Tabs

Gob Chords & Tabs

Version: 4 Type: Tab 0 ratings
1 star 2 stars 3 stars 4 stars 5 stars
comments

Paint It Black Tab

-------------------------------------------------------------------------------
			    Gob- Paint it Black
-------------------------------------------------------------------------------

TABBED BY ANDREW RUSHTON (rushton_ug).

PLAYED TUNED DOWN 1/2 STEP.

This song is the whole song, Im guessing about 98% right. I think I got all the palm 
muting and stuff in it. To make it sound good, have a really nice bass-y distortion, 
medal distortion on most effect pedals. When Palm Muting, make sure its nice and 'crisp'. 
But until the E5 repeat of the power chord at the end, make sure to keep it someone bass-y,
and "wet". At the ending repeat E5 chord, keep it "dry". If you know what I mean, 
if you don't listen to the song. Also, you can make the intro and parts like it a little 
fancier, thats what I usually do, but its hard to tab. But this is the whole song. Enjoy!

|--------------------------------------------------------------------------------------------------------|
|----/5--7--8--10--8--7--5---5--4--5--7--4--h5--h7--5--h4--h5b----[drums]----[start ringing]-------------|
|--------------------------------------------------------------------------------------------------------|
|----------------------------------------------------------------------------------------------------2---|
|----------------------------------------------------------------------------------------------------2---|
|---------------------------------------------------------------------------------------------------\0---|

|--------------------------------------------------------------------------------------------------------------------------------------------------------------|
|--------------------------------------------------------------------------------------------------------------------------------------------------------------|
|--------------------------------------------------------------------------------------------------------------------------------------------------------------|
|--9----------------------------------------------------------------------------------------------------9------------------------------------------------------|
|--7-------------------------------------------------9-------------------------------------------------7-------------------------------------------------9-----|
|----0-0-0-0-0-0-0-0-0-0-0-0-0-0-0-0----- 7--7-7-7-7-7-7-7-7-7-7-7-7-7-7-7-7------0-0-0-0-0-0-0-0-0-0-0-0-0-0-0-0----- 7--7-7-7-7-7-7-7-7-7-7-7-7-7-7-7-7------|
      (Palm Muted.........................)      (Palm Muted.........................)       (Palm Muted.........................)        (Palm Muted.........................)

|------------------------------------------------------------------------------------------------|
|------------------------------------------------------------------------------------------------|
|------------------------------------------------------------------------------------------------|
|--9--7-7-------------------------------------9--7-7---------------------------------------------|
|--7--5-5--5-5--7-7--9-9-9--7/--9------7--5-5---5-5--7-7--7-7-7-7-7-7-7-7---9-9-9-9-9-9-9-9------|
|------------3-3--5-5--7-7-7--5/--7-----------------3-3--5-5--5-5-5-5-5-5-5-5---7-7-7-7-7-7-7-7--|

|--------------------------------------------------------------------------------------------------------------------------------------------------------------|
|--------------------------------------------------------------------------------------------------------------------------------------------------------------|
|--------------------------------------------------------------------------------------------------------------------------------------------------------------|
|--9----------------------------------------------------------------------------------------------------9------------------------------------------------------|
|--7-------------------------------------------------9-------------------------------------------------7-------------------------------------------------9-----|
|----0-0-0-0-0-0-0-0-0-0-0-0-0-0-0-0----- 7--7-7-7-7-7-7-7-7-7-7-7-7-7-7-7-7------0-0-0-0-0-0-0-0-0-0-0-0-0-0-0-0----- 7--7-7-7-7-7-7-7-7-7-7-7-7-7-7-7-7------|
      (Palm Muted.........................)      (Palm Muted.........................)       (Palm Muted.........................)        (Palm Muted.........................)

|------------------------------------------------------------------------------------------------|
|------------------------------------------------------------------------------------------------|
|------------------------------------------------------------------------------------------------|
|--9--7-7-------------------------------------9--7-7---------------------------------------------|
|--7--5-5--5-5--7-7--9-9-9--7/--9------7--5-5---5-5--7-7--7-7-7-7-7-7-7-7---9-9-9-9-9-9-9-9------|
|------------3-3--5-5--7-7-7--5/--7-----------------3-3--5-5--5-5-5-5-5-5-5-5---7-7-7-7-7-7-7-7--|
[ Tab from: http://www.guitartabs.cc/tabs/g/gob/paint_it_black_tab_ver_4.html ]
|--------------------------------------------------------------------------------------------------------------------------------------------------------------|
|--------------------------------------------------------------------------------------------------------------------------------------------------------------|
|--------------------------------------------------------------------------------------------------------------------------------------------------------------|
|--9----------------------------------------------------------------------------------------------------9------------------------------------------------------|
|--7-------------------------------------------------9-------------------------------------------------7-------------------------------------------------9-----|
|----0-0-0-0-0-0-0-0-0-0-0-0-0-0-0-0----- 7--7-7-7-7-7-7-7-7-7-7-7-7-7-7-7-7------0-0-0-0-0-0-0-0-0-0-0-0-0-0-0-0----- 7--7-7-7-7-7-7-7-7-7-7-7-7-7-7-7-7------|
      (Palm Muted.........................)      (Palm Muted.........................)       (Palm Muted.........................)        (Palm Muted.........................)

|------------------------------------------------------------------------------------------------|
|------------------------------------------------------------------------------------------------|
|------------------------------------------------------------------------------------------------|
|--9--7-7-------------------------------------9--7-7---------------------------------------------|
|--7--5-5--5-5--7-7--9-9-9--7/--9------7--5-5---5-5--7-7--7-7-7-7-7-7-7-7---9-9-9-9-9-9-9-9------|
|------------3-3--5-5--7-7-7--5/--7-----------------3-3--5-5--5-5-5-5-5-5-5-5---7-7-7-7-7-7-7-7--|

|------------------------------------------------------------------------------------------|
|--/5--7--8--10--8--7--5--5--4--5--7--5--4b----/5--7--8--10--8--7--5--5--4--5--7--5--4b----|
|------------------------------------------------------------------------------------------|
|------------------------------------------------------------------------------------------|
|------------------------------------------------------------------------------------------|
|------------------------------------------------------------------------------------------|

|------------------------------------------------------------------------------------------------|
|------------------------------------------------------------------------------------------------|
|------------------------------------------------------------------------------------------------|
|--9--7-7-------------------------------------9--7-7---------------------------------------------|
|--7--5-5--5-5--7-7--9-9-9--7/--9------7--5-5---5-5--7-7--7-7-7-7-7-7-7-7---9-9-9-9-9-9-9-9------|
|------------3-3--5-5--7-7-7--5/--7-----------------3-3--5-5--5-5-5-5-5-5-5-5---7-7-7-7-7-7-7-7--|

|--------------------------------------------------------------------------------------------------------------------------------------------------------------|
|--------------------------------------------------------------------------------------------------------------------------------------------------------------|
|--------------------------------------------------------------------------------------------------------------------------------------------------------------|
|--9----------------------------------------------------------------------------------------------------9------------------------------------------------------|
|--7-------------------------------------------------9-------------------------------------------------7-------------------------------------------------9-----|
|----0-0-0-0-0-0-0-0-0-0-0-0-0-0-0-0----- 7--7-7-7-7-7-7-7-7-7-7-7-7-7-7-7-7------0-0-0-0-0-0-0-0-0-0-0-0-0-0-0-0----- 7--7-7-7-7-7-7-7-7-7-7-7-7-7-7-7-7------|
      (Palm Muted.........................)      (Palm Muted.........................)       (Palm Muted.........................)        (Palm Muted.........................)

|------------------------------------------------------------------------------------------------|
|------------------------------------------------------------------------------------------------|
|------------------------------------------------------------------------------------------------|
|--9--7-7-------------------------------------9--7-7---------------------------------------------|
|--7--5-5--5-5--7-7--9-9-9--7/--9------7--5-5---5-5--7-7--7-7-7-7-7-7-7-7---9-9-9-9-9-9-9-9------|
|------------3-3--5-5--7-7-7--5/--7-----------------3-3--5-5--5-5-5-5-5-5-5-5---7-7-7-7-7-7-7-7--|

|-----------------------------------------------------------------------|
|-----------------------------------------------------------------------|
|-----------------------------------------------------------------------|
|-----------------------------------------------------------------------|
|-----2-2-2-2-2-2-2-2-2-2-2-2-2-2-2-2-2-2------------PLAY THAT 7 TIMES--|
|-----0-0-0-0-0-0-0-0-0-0-0-0-0-0-0-0-0-0-------------------------------|
     (Palm Mute................................)
|--------------------------------------------------------------------------------|
|--/5--7--8--10--8--7--5--5--4--5--7--5--4b----PLAY THIS 7 TIMES-----------------|
|--------------------------------------------------------------------------------|
|--------------------------------------------------------------------2--2-2-2-2--|
|--------------------------------------------------------------------0--0-0-0-0--|
|--------------------------------------------------------------------0--0-0-0-0--|
						    (Palm Mute)

===============================================================================
Comments